  0
SECTION
  2
HEADER
  9
$ACADVER
  1
AC1024
  9
$ACADMAINTVER
 70
     6
  9
$DWGCODEPAGE
  3
ANSI_1252
  9
$INSBASE
 10
0.0
 20
0.0
 30
0.0
  9
$EXTMIN
 10
1.000000000000000E+20
 20
1.000000000000000E+20
 30
1.000000000000000E+20
  9
$EXTMAX
 10
-1.000000000000000E+20
 20
-1.000000000000000E+20
 30
-1.000000000000000E+20
  9
$LIMMIN
 10
0.0
 20
0.0
  9
$LIMMAX
 10
12.0
 20
9.0
  9
$ORTHOMODE
 70
     0
  9
$REGENMODE
 70
     1
  9
$FILLMODE
 70
     1
  9
$QTEXTMODE
 70
     0
  9
$MIRRTEXT
 70
     1
  9
$LTSCALE
 40
1.0
  9
$ATTMODE
 70
     1
  9
$TEXTSIZE
 40
0.2
  9
$TRACEWID
 40
0.05
  9
$TEXTSTYLE
  7
Standard
  9
$CLAYER
  8
0
  9
$CELTYPE
  6
ByLayer
  9
$CECOLOR
 62
   256
  9
$CELTSCALE
 40
1.0
  9
$DISPSILH
 70
     0
  9
$DIMSCALE
 40
1.0
  9
$DIMASZ
 40
0.18
  9
$DIMEXO
 40
0.0625
  9
$DIMDLI
 40
0.38
  9
$DIMRND
 40
0.0
  9
$DIMDLE
 40
0.0
  9
$DIMEXE
 40
0.18
  9
$DIMTP
 40
0.0
  9
$DIMTM
 40
0.0
  9
$DIMTXT
 40
0.18
  9
$DIMCEN
 40
0.09
  9
$DIMTSZ
 40
0.0
  9
$DIMTOL
 70
     0
  9
$DIMLIM
 70
     0
  9
$DIMTIH
 70
     1
  9
$DIMTOH
 70
     1
  9
$DIMSE1
 70
     0
  9
$DIMSE2
 70
     0
  9
$DIMTAD
 70
     0
  9
$DIMZIN
 70
     0
  9
$DIMBLK
  1

  9
$DIMASO
 70
     1
  9
$DIMSHO
 70
     1
  9
$DIMPOST
  1

  9
$DIMAPOST
  1

  9
$DIMALT
 70
     0
  9
$DIMALTD
 70
     2
  9
$DIMALTF
 40
25.4
  9
$DIMLFAC
 40
1.0
  9
$DIMTOFL
 70
     0
  9
$DIMTVP
 40
0.0
  9
$DIMTIX
 70
     0
  9
$DIMSOXD
 70
     0
  9
$DIMSAH
 70
     0
  9
$DIMBLK1
  1

  9
$DIMBLK2
  1

  9
$DIMSTYLE
  2
Standard
  9
$DIMCLRD
 70
     0
  9
$DIMCLRE
 70
     0
  9
$DIMCLRT
 70
     0
  9
$DIMTFAC
 40
1.0
  9
$DIMGAP
 40
0.09
  9
$DIMJUST
 70
     0
  9
$DIMSD1
 70
     0
  9
$DIMSD2
 70
     0
  9
$DIMTOLJ
 70
     1
  9
$DIMTZIN
 70
     0
  9
$DIMALTZ
 70
     0
  9
$DIMALTTZ
 70
     0
  9
$DIMUPT
 70
     0
  9
$DIMDEC
 70
     4
  9
$DIMTDEC
 70
     4
  9
$DIMALTU
 70
     2
  9
$DIMALTTD
 70
     2
  9
$DIMTXSTY
  7
Standard
  9
$DIMAUNIT
 70
     0
  9
$DIMADEC
 70
     0
  9
$DIMALTRND
 40
0.0
  9
$DIMAZIN
 70
     0
  9
$DIMDSEP
 70
    46
  9
$DIMATFIT
 70
     3
  9
$DIMFRAC
 70
     0
  9
$DIMLDRBLK
  1

  9
$DIMLUNIT
 70
     2
  9
$DIMLWD
 70
    -2
  9
$DIMLWE
 70
    -2
  9
$DIMTMOVE
 70
     0
  9
$DIMFXL
 40
1.0
  9
$DIMFXLON
 70
     0
  9
$DIMJOGANG
 40
0.7853981633974483
  9
$DIMTFILL
 70
     0
  9
$DIMTFILLCLR
 70
     0
  9
$DIMARCSYM
 70
     0
  9
$DIMLTYPE
  6

  9
$DIMLTEX1
  6

  9
$DIMLTEX2
  6

  9
$DIMTXTDIRECTION
 70
     0
  9
$LUNITS
 70
     2
  9
$LUPREC
 70
     4
  9
$SKETCHINC
 40
0.1
  9
$FILLETRAD
 40
0.5
  9
$AUNITS
 70
     0
  9
$AUPREC
 70
     0
  9
$MENU
  1
.
  9
$ELEVATION
 40
0.0
  9
$PELEVATION
 40
0.0
  9
$THICKNESS
 40
0.0
  9
$LIMCHECK
 70
     0
  9
$CHAMFERA
 40
0.5
  9
$CHAMFERB
 40
0.5
  9
$CHAMFERC
 40
1.0
  9
$CHAMFERD
 40
0.0
  9
$SKPOLY
 70
     0
  9
$TDCREATE
 40
2458212.368460567
  9
$TDUCREATE
 40
2458212.285127234
  9
$TDUPDATE
 40
2458212.36846059
  9
$TDUUPDATE
 40
2458212.285127257
  9
$TDINDWG
 40
0.0000000116
  9
$TDUSRTIMER
 40
0.0000000116
  9
$USRTIMER
 70
     1
  9
$ANGBASE
 50
0.0
  9
$ANGDIR
 70
     0
  9
$PDMODE
 70
     0
  9
$PDSIZE
 40
0.0
  9
$PLINEWID
 40
0.0
  9
$SPLFRAME
 70
     0
  9
$SPLINETYPE
 70
     6
  9
$SPLINESEGS
 70
     8
  9
$HANDSEED
  5
E6
  9
$SURFTAB1
 70
     6
  9
$SURFTAB2
 70
     6
  9
$SURFTYPE
 70
     6
  9
$SURFU
 70
     6
  9
$SURFV
 70
     6
  9
$UCSBASE
  2

  9
$UCSNAME
  2

  9
$UCSORG
 10
0.0
 20
0.0
 30
0.0
  9
$UCSXDIR
 10
1.0
 20
0.0
 30
0.0
  9
$UCSYDIR
 10
0.0
 20
1.0
 30
0.0
  9
$UCSORTHOREF
  2

  9
$UCSORTHOVIEW
 70
     0
  9
$UCSORGTOP
 10
0.0
 20
0.0
 30
0.0
  9
$UCSORGBOTTOM
 10
0.0
 20
0.0
 30
0.0
  9
$UCSORGLEFT
 10
0.0
 20
0.0
 30
0.0
  9
$UCSORGRIGHT
 10
0.0
 20
0.0
 30
0.0
  9
$UCSORGFRONT
 10
0.0
 20
0.0
 30
0.0
  9
$UCSORGBACK
 10
0.0
 20
0.0
 30
0.0
  9
$PUCSBASE
  2

  9
$PUCSNAME
  2

  9
$PUCSORG
 10
0.0
 20
0.0
 30
0.0
  9
$PUCSXDIR
 10
1.0
 20
0.0
 30
0.0
  9
$PUCSYDIR
 10
0.0
 20
1.0
 30
0.0
  9
$PUCSORTHOREF
  2

  9
$PUCSORTHOVIEW
 70
     0
  9
$PUCSORGTOP
 10
0.0
 20
0.0
 30
0.0
  9
$PUCSORGBOTTOM
 10
0.0
 20
0.0
 30
0.0
  9
$PUCSORGLEFT
 10
0.0
 20
0.0
 30
0.0
  9
$PUCSORGRIGHT
 10
0.0
 20
0.0
 30
0.0
  9
$PUCSORGFRONT
 10
0.0
 20
0.0
 30
0.0
  9
$PUCSORGBACK
 10
0.0
 20
0.0
 30
0.0
  9
$USERI1
 70
     0
  9
$USERI2
 70
     0
  9
$USERI3
 70
     0
  9
$USERI4
 70
     0
  9
$USERI5
 70
     0
  9
$USERR1
 40
0.0
  9
$USERR2
 40
0.0
  9
$USERR3
 40
0.0
  9
$USERR4
 40
0.0
  9
$USERR5
 40
0.0
  9
$WORLDVIEW
 70
     1
  9
$SHADEDGE
 70
     3
  9
$SHADEDIF
 70
    70
  9
$TILEMODE
 70
     1
  9
$MAXACTVP
 70
    64
  9
$PINSBASE
 10
0.0
 20
0.0
 30
0.0
  9
$PLIMCHECK
 70
     0
  9
$PEXTMIN
 10
1.000000000000000E+20
 20
1.000000000000000E+20
 30
1.000000000000000E+20
  9
$PEXTMAX
 10
-1.000000000000000E+20
 20
-1.000000000000000E+20
 30
-1.000000000000000E+20
  9
$PLIMMIN
 10
0.0
 20
0.0
  9
$PLIMMAX
 10
12.0
 20
9.0
  9
$UNITMODE
 70
     0
  9
$VISRETAIN
 70
     1
  9
$PLINEGEN
 70
     0
  9
$PSLTSCALE
 70
     1
  9
$TREEDEPTH
 70
  3020
  9
$CMLSTYLE
  2
Standard
  9
$CMLJUST
 70
     0
  9
$CMLSCALE
 40
1.0
  9
$PROXYGRAPHICS
 70
     1
  9
$MEASUREMENT
 70
     0
  9
$CELWEIGHT
370
    -1
  9
$ENDCAPS
280
     0
  9
$JOINSTYLE
280
     0
  9
$LWDISPLAY
290
     1
  9
$INSUNITS
 70
     1
  9
$HYPERLINKBASE
  1

  9
$STYLESHEET
  1

  9
$XEDIT
290
     1
  9
$CEPSNTYPE
380
     0
  9
$PSTYLEMODE
290
     1
  9
$FINGERPRINTGUID
  2
{860618BE-E410-4B2C-B702-A5F999CC5398}
  9
$VERSIONGUID
  2
{FAEB1C32-E019-11D5-929B-00C0DF256EC4}
  9
$EXTNAMES
290
     1
  9
$PSVPSCALE
 40
0.0
  9
$OLESTARTUP
290
     0
  9
$SORTENTS
280
   127
  9
$INDEXCTL
280
     0
  9
$HIDETEXT
280
     1
  9
$XCLIPFRAME
280
     2
  9
$HALOGAP
280
     0
  9
$OBSCOLOR
 70
   257
  9
$OBSLTYPE
280
     0
  9
$INTERSECTIONDISPLAY
280
     0
  9
$INTERSECTIONCOLOR
 70
   257
  9
$DIMASSOC
280
     2
  9
$PROJECTNAME
  1

  9
$CAMERADISPLAY
290
     0
  9
$LENSLENGTH
 40
50.0
  9
$CAMERAHEIGHT
 40
0.0
  9
$STEPSPERSEC
 40
2.0
  9
$STEPSIZE
 40
6.0
  9
$3DDWFPREC
 40
2.0
  9
$PSOLWIDTH
 40
0.25
  9
$PSOLHEIGHT
 40
4.0
  9
$LOFTANG1
 40
1.570796326794897
  9
$LOFTANG2
 40
1.570796326794897
  9
$LOFTMAG1
 40
0.0
  9
$LOFTMAG2
 40
0.0
  9
$LOFTPARAM
 70
     7
  9
$LOFTNORMALS
280
     1
  9
$LATITUDE
 40
37.795
  9
$LONGITUDE
 40
-122.394
  9
$NORTHDIRECTION
 40
0.0
  9
$TIMEZONE
 70
 -8000
  9
$LIGHTGLYPHDISPLAY
280
     1
  9
$TILEMODELIGHTSYNCH
280
     1
  9
$CMATERIAL
347
3C
  9
$SOLIDHIST
280
     1
  9
$SHOWHIST
280
     1
  9
$DWFFRAME
280
     2
  9
$DGNFRAME
280
     2
  9
$REALWORLDSCALE
290
     1
  9
$INTERFERECOLOR
 62
   256
  9
$CSHADOW
280
     0
  9
$SHADOWPLANELOCATION
 40
0.0
  0
ENDSEC
  0
SECTION
  2
CLASSES
  0
CLASS
  1
ACDBDICTIONARYWDFLT
  2
AcDbDictionaryWithDefault
  3
ObjectDBX Classes
 90
        0
 91
        4
280
     0
281
     0
  0
CLASS
  1
VISUALSTYLE
  2
AcDbVisualStyle
  3
ObjectDBX Classes
 90
     4095
 91
        4
280
     0
281
     0
  0
CLASS
  1
MATERIAL
  2
AcDbMaterial
  3
ObjectDBX Classes
 90
     1153
 91
        4
280
     0
281
     0
  0
CLASS
  1
SUN
  2
AcDbSun
  3
SCENEOE
 90
     1024
 91
        4
280
     0
281
     0
  0
ENDSEC
  0
SECTION
  2
TABLES
  0
TABLE
  2
VPORT
  5
8
330
0
100
AcDbSymbolTable
 70
     1
  0
VPORT
  5
29
330
8
100
AcDbSymbolTableRecord
100
AcDbViewportTableRecord
  2
*Active
 70
     0
 10
0.0
 20
0.0
 11
1.0
 21
1.0
 12
0.0
 22
0.0
 13
0.0
 23
0.0
 14
0.5
 24
0.5
 15
0.5
 25
0.5
 16
0.0
 26
0.0
 36
1.0
 17
114.9999999712486
 27
-114.9999999712486
 37
0.0
 40
229.9999999424971
 41
1.0
 42
50.0
 43
0.0
 44
0.0
 50
0.0
 51
0.0
 71
     0
 72
   100
 73
     1
 74
     3
 75
     0
 76
     0
 77
     0
 78
     0
281
     0
 65
     1
110
0.0
120
0.0
130
0.0
111
1.0
121
0.0
131
0.0
112
0.0
122
1.0
132
0.0
 79
     0
146
0.0
 60
     3
 61
     5
292
     1
282
     1
141
0.0
142
0.0
 63
   250
361
3F
  0
ENDTAB
  0
TABLE
  2
LTYPE
  5
5
330
0
100
AcDbSymbolTable
 70
     1
  0
LTYPE
  5
14
330
5
100
AcDbSymbolTableRecord
100
AcDbLinetypeTableRecord
  2
ByBlock
 70
     0
  3

 72
    65
 73
     0
 40
0.0
  0
LTYPE
  5
15
330
5
100
AcDbSymbolTableRecord
100
AcDbLinetypeTableRecord
  2
ByLayer
 70
     0
  3

 72
    65
 73
     0
 40
0.0
  0
LTYPE
  5
16
330
5
100
AcDbSymbolTableRecord
100
AcDbLinetypeTableRecord
  2
Continuous
 70
     0
  3
Solid line
 72
    65
 73
     0
 40
0.0
  0
ENDTAB
  0
TABLE
  2
LAYER
  5
2
330
0
100
AcDbSymbolTable
 70
    20
  0
LAYER
  5
10
330
2
100
AcDbSymbolTableRecord
100
AcDbLayerTableRecord
  2
0
 70
     0
 62
     7
  6
Continuous
370
    -3
390
F
347
3E
  0
LAYER
  5
40
330
2
100
AcDbSymbolTableRecord
100
AcDbLayerTableRecord
  2
Calque 1
 70
     5
 62
     7
  6
Continuous
370
    -3
390
F
347
3E
  0
LAYER
  5
42
330
2
100
AcDbSymbolTableRecord
100
AcDbLayerTableRecord
  2
Calque 3
 70
     5
 62
     7
  6
Continuous
370
    -3
390
F
347
3E
  0
LAYER
  5
44
330
2
100
AcDbSymbolTableRecord
100
AcDbLayerTableRecord
  2
Calque 2
 70
     5
 62
     7
  6
Continuous
370
    -3
390
F
347
3E
  0
LAYER
  5
60
330
2
100
AcDbSymbolTableRecord
100
AcDbLayerTableRecord
  2
Calque 4
 70
     5
 62
     7
  6
Continuous
370
    -3
390
F
347
3E
  0
LAYER
  5
7D
330
2
100
AcDbSymbolTableRecord
100
AcDbLayerTableRecord
  2
Calque 5
 70
     5
 62
     7
  6
Continuous
370
    -3
390
F
347
3E
  0
LAYER
  5
7F
330
2
100
AcDbSymbolTableRecord
100
AcDbLayerTableRecord
  2
Calque 6
 70
     5
 62
     7
  6
Continuous
370
    -3
390
F
347
3E
  0
LAYER
  5
81
330
2
100
AcDbSymbolTableRecord
100
AcDbLayerTableRecord
  2
Calque 7
 70
     5
 62
     7
  6
Continuous
370
    -3
390
F
347
3E
  0
LAYER
  5
83
330
2
100
AcDbSymbolTableRecord
100
AcDbLayerTableRecord
  2
Calque 8
 70
     5
 62
     7
  6
Continuous
370
    -3
390
F
347
3E
  0
LAYER
  5
8F
330
2
100
AcDbSymbolTableRecord
100
AcDbLayerTableRecord
  2
Calque 9
 70
     5
 62
     7
  6
Continuous
370
    -3
390
F
347
3E
  0
LAYER
  5
90
330
2
100
AcDbSymbolTableRecord
100
AcDbLayerTableRecord
  2
Calque 10
 70
     5
 62
     7
  6
Continuous
370
    -3
390
F
347
3E
  0
LAYER
  5
A0
330
2
100
AcDbSymbolTableRecord
100
AcDbLayerTableRecord
  2
Calque 11
 70
     5
 62
     7
  6
Continuous
370
    -3
390
F
347
3E
  0
LAYER
  5
B0
330
2
100
AcDbSymbolTableRecord
100
AcDbLayerTableRecord
  2
Calque 12
 70
     5
 62
     7
  6
Continuous
370
    -3
390
F
347
3E
  0
LAYER
  5
B2
330
2
100
AcDbSymbolTableRecord
100
AcDbLayerTableRecord
  2
Calque 13
 70
     5
 62
     7
  6
Continuous
370
    -3
390
F
347
3E
  0
LAYER
  5
B8
330
2
100
AcDbSymbolTableRecord
100
AcDbLayerTableRecord
  2
Calque 14
 70
     5
 62
     7
  6
Continuous
370
    -3
390
F
347
3E
  0
LAYER
  5
BA
330
2
100
AcDbSymbolTableRecord
100
AcDbLayerTableRecord
  2
Calque 15
 70
     5
 62
     7
  6
Continuous
370
    -3
390
F
347
3E
  0
LAYER
  5
BC
330
2
100
AcDbSymbolTableRecord
100
AcDbLayerTableRecord
  2
Calque 16
 70
     5
 62
     7
  6
Continuous
370
    -3
390
F
347
3E
  0
LAYER
  5
C2
330
2
100
AcDbSymbolTableRecord
100
AcDbLayerTableRecord
  2
Calque 17
 70
     5
 62
     7
  6
Continuous
370
    -3
390
F
347
3E
  0
LAYER
  5
C4
330
2
100
AcDbSymbolTableRecord
100
AcDbLayerTableRecord
  2
Calque 18
 70
     5
 62
     7
  6
Continuous
370
    -3
390
F
347
3E
  0
LAYER
  5
D4
330
2
100
AcDbSymbolTableRecord
100
AcDbLayerTableRecord
  2
Calque 19
 70
     0
 62
     7
  6
Continuous
370
    -3
390
F
347
3E
  0
ENDTAB
  0
TABLE
  2
STYLE
  5
3
330
0
100
AcDbSymbolTable
 70
     1
  0
STYLE
  5
11
330
3
100
AcDbSymbolTableRecord
100
AcDbTextStyleTableRecord
  2
Standard
 70
     0
 40
0.0
 41
1.0
 50
0.0
 71
     0
 42
0.2
  3
txt
  4

  0
ENDTAB
  0
TABLE
  2
VIEW
  5
6
330
0
100
AcDbSymbolTable
 70
     0
  0
ENDTAB
  0
TABLE
  2
UCS
  5
7
330
0
100
AcDbSymbolTable
 70
     0
  0
ENDTAB
  0
TABLE
  2
APPID
  5
9
330
0
100
AcDbSymbolTable
 70
     1
  0
APPID
  5
12
330
9
100
AcDbSymbolTableRecord
100
AcDbRegAppTableRecord
  2
ACAD
 70
     0
  0
ENDTAB
  0
TABLE
  2
DIMSTYLE
  5
A
330
0
100
AcDbSymbolTable
 70
     1
100
AcDbDimStyleTable
  0
DIMSTYLE
105
27
330
A
100
AcDbSymbolTableRecord
100
AcDbDimStyleTableRecord
  2
Standard
 70
     0
178
     0
340
11
  0
ENDTAB
  0
TABLE
  2
BLOCK_RECORD
  5
1
330
0
100
AcDbSymbolTable
 70
     7
  0
BLOCK_RECORD
  5
1F
330
1
100
AcDbSymbolTableRecord
100
AcDbBlockTableRecord
  2
*Model_Space
340
22
 70
     0
280
     1
281
     0
  0
BLOCK_RECORD
  5
1B
330
1
100
AcDbSymbolTableRecord
100
AcDbBlockTableRecord
  2
*Paper_Space
340
1E
 70
     0
280
     1
281
     0
  0
BLOCK_RECORD
  5
23
330
1
100
AcDbSymbolTableRecord
100
AcDbBlockTableRecord
  2
*Paper_Space0
340
26
 70
     0
280
     1
281
     0
  0
BLOCK_RECORD
  5
91
330
1
100
AcDbSymbolTableRecord
100
AcDbBlockTableRecord
  2
block 2
340
0
102
{BLKREFS
331
92
102
}
 70
     0
280
     1
281
     0
  0
BLOCK_RECORD
  5
A1
330
1
100
AcDbSymbolTableRecord
100
AcDbBlockTableRecord
  2
block 3
340
0
102
{BLKREFS
331
A2
102
}
 70
     0
280
     1
281
     0
  0
BLOCK_RECORD
  5
B3
330
1
100
AcDbSymbolTableRecord
100
AcDbBlockTableRecord
  2
block 4
340
0
102
{BLKREFS
331
B4
102
}
 70
     0
280
     1
281
     0
  0
BLOCK_RECORD
  5
BD
330
1
100
AcDbSymbolTableRecord
100
AcDbBlockTableRecord
  2
block 5
340
0
102
{BLKREFS
331
BE
102
}
 70
     0
280
     1
281
     0
  0
BLOCK_RECORD
  5
C5
330
1
100
AcDbSymbolTableRecord
100
AcDbBlockTableRecord
  2
block 6
340
0
102
{BLKREFS
331
C6
102
}
 70
     0
280
     1
281
     0
  0
BLOCK_RECORD
  5
D5
330
1
100
AcDbSymbolTableRecord
100
AcDbBlockTableRecord
  2
block 7
340
0
102
{BLKREFS
331
D6
102
}
 70
     0
280
     1
281
     0
  0
ENDTAB
  0
ENDSEC
  0
SECTION
  2
BLOCKS
  0
BLOCK
  5
20
330
1F
100
AcDbEntity
  8
0
100
AcDbBlockBegin
  2
*Model_Space
 70
     0
 10
0.0
 20
0.0
 30
0.0
  3
*Model_Space
  1

  0
ENDBLK
  5
21
330
1F
100
AcDbEntity
  8
0
100
AcDbBlockEnd
  0
BLOCK
  5
1C
330
1B
100
AcDbEntity
 67
     1
  8
0
100
AcDbBlockBegin
  2
*Paper_Space
 70
     0
 10
0.0
 20
0.0
 30
0.0
  3
*Paper_Space
  1

  0
ENDBLK
  5
1D
330
1B
100
AcDbEntity
 67
     1
  8
0
100
AcDbBlockEnd
  0
BLOCK
  5
24
330
23
100
AcDbEntity
  8
0
100
AcDbBlockBegin
  2
*Paper_Space0
 70
     0
 10
0.0
 20
0.0
 30
0.0
  3
*Paper_Space0
  1

  0
ENDBLK
  5
25
330
23
100
AcDbEntity
  8
0
100
AcDbBlockEnd
  0
BLOCK
  5
93
330
91
100
AcDbEntity
  8
0
100
AcDbBlockBegin
  2
block 2
 70
     0
 10
0.0
 20
0.0
 30
0.0
  3
block 2
  1

  0
POLYLINE
  5
95
330
91
100
AcDbEntity
  8
Calque 10
 62
   250
420
  2301728
370
    35
100
AcDb2dPolyline
 66
     1
 10
0.0
 20
0.0
 30
0.0
  0
VERTEX
  5
96
330
95
100
AcDbEntity
  8
Calque 10
 62
   250
420
  2301728
370
    35
100
AcDbVertex
100
AcDb2dVertex
 10
146.4683800409134
 20
-116.4021439523767
 30
0.0
  0
VERTEX
  5
97
330
95
100
AcDbEntity
  8
Calque 10
 62
   250
420
  2301728
370
    35
100
AcDbVertex
100
AcDb2dVertex
 10
84.04926053961823
 20
-116.4021439523767
 30
0.0
  0
VERTEX
  5
98
330
95
100
AcDbEntity
  8
Calque 10
 62
   250
420
  2301728
370
    35
100
AcDbVertex
100
AcDb2dVertex
 10
81.21327998477143
 20
-113.5664809691649
 30
0.0
  0
VERTEX
  5
99
330
95
100
AcDbEntity
  8
Calque 10
 62
   250
420
  2301728
370
    35
100
AcDbVertex
100
AcDb2dVertex
 10
81.21327998477143
 20
-79.37391582014034
 30
0.0
  0
VERTEX
  5
9A
330
95
100
AcDbEntity
  8
Calque 10
 62
   250
420
  2301728
370
    35
100
AcDbVertex
100
AcDb2dVertex
 10
84.04926053961823
 20
-76.53843246938504
 30
0.0
  0
VERTEX
  5
9B
330
95
100
AcDbEntity
  8
Calque 10
 62
   250
420
  2301728
370
    35
100
AcDbVertex
100
AcDb2dVertex
 10
146.4683800409134
 20
-76.53843246938504
 30
0.0
  0
VERTEX
  5
9C
330
95
100
AcDbEntity
  8
Calque 10
 62
   250
420
  2301728
370
    35
100
AcDbVertex
100
AcDb2dVertex
 10
149.3040430241252
 20
-79.37391582014034
 30
0.0
  0
VERTEX
  5
9D
330
95
100
AcDbEntity
  8
Calque 10
 62
   250
420
  2301728
370
    35
100
AcDbVertex
100
AcDb2dVertex
 10
149.3040430241252
 20
-113.5664809691649
 30
0.0
  0
VERTEX
  5
9E
330
95
100
AcDbEntity
  8
Calque 10
 62
   250
420
  2301728
370
    35
100
AcDbVertex
100
AcDb2dVertex
 10
146.4683800409134
 20
-116.4021439523767
 30
0.0
  0
SEQEND
  5
9F
330
95
100
AcDbEntity
  8
Calque 10
 62
   250
420
  2301728
370
    35
  0
ENDBLK
  5
94
330
91
100
AcDbEntity
  8
0
100
AcDbBlockEnd
  0
BLOCK
  5
A3
330
A1
100
AcDbEntity
  8
0
100
AcDbBlockBegin
  2
block 3
 70
     0
 10
0.0
 20
0.0
 30
0.0
  3
block 3
  1

  0
POLYLINE
  5
A5
330
A1
100
AcDbEntity
  8
Calque 11
 62
   250
420
  2301728
370
    35
100
AcDb2dPolyline
 66
     1
 10
0.0
 20
0.0
 30
0.0
  0
VERTEX
  5
A6
330
A5
100
AcDbEntity
  8
Calque 11
 62
   250
420
  2301728
370
    35
100
AcDbVertex
100
AcDb2dVertex
 10
157.384928624576
 20
-116.3433139335434
 30
0.0
  0
VERTEX
  5
A7
330
A5
100
AcDbEntity
  8
Calque 11
 62
   250
420
  2301728
370
    35
100
AcDbVertex
100
AcDb2dVertex
 10
73.03795133200349
 20
-116.3433139335434
 30
0.0
  0
VERTEX
  5
A8
330
A5
100
AcDbEntity
  8
Calque 11
 62
   250
420
  2301728
370
    35
100
AcDbVertex
100
AcDb2dVertex
 10
70.20228834879141
 20
-113.5076509503317
 30
0.0
  0
VERTEX
  5
A9
330
A5
100
AcDbEntity
  8
Calque 11
 62
   250
420
  2301728
370
    35
100
AcDbVertex
100
AcDb2dVertex
 10
70.20228834879141
 20
-79.31508580130708
 30
0.0
  0
VERTEX
  5
AA
330
A5
100
AcDbEntity
  8
Calque 11
 62
   250
420
  2301728
370
    35
100
AcDbVertex
100
AcDb2dVertex
 10
73.03795133200349
 20
-76.47960245055178
 30
0.0
  0
VERTEX
  5
AB
330
A5
100
AcDbEntity
  8
Calque 11
 62
   250
420
  2301728
370
    35
100
AcDbVertex
100
AcDb2dVertex
 10
157.384928624576
 20
-76.47960245055178
 30
0.0
  0
VERTEX
  5
AC
330
A5
100
AcDbEntity
  8
Calque 11
 62
   250
420
  2301728
370
    35
100
AcDbVertex
100
AcDb2dVertex
 10
160.2205916077878
 20
-79.31508580130708
 30
0.0
  0
VERTEX
  5
AD
330
A5
100
AcDbEntity
  8
Calque 11
 62
   250
420
  2301728
370
    35
100
AcDbVertex
100
AcDb2dVertex
 10
160.2205916077878
 20
-113.5076509503317
 30
0.0
  0
VERTEX
  5
AE
330
A5
100
AcDbEntity
  8
Calque 11
 62
   250
420
  2301728
370
    35
100
AcDbVertex
100
AcDb2dVertex
 10
157.384928624576
 20
-116.3433139335434
 30
0.0
  0
SEQEND
  5
AF
330
A5
100
AcDbEntity
  8
Calque 11
 62
   250
420
  2301728
370
    35
  0
ENDBLK
  5
A4
330
A1
100
AcDbEntity
  8
0
100
AcDbBlockEnd
  0
BLOCK
  5
B5
330
B3
100
AcDbEntity
  8
0
100
AcDbBlockBegin
  2
block 4
 70
     0
 10
0.0
 20
0.0
 30
0.0
  3
block 4
  1

  0
SPLINE
  5
B7
330
B3
100
AcDbEntity
  8
Calque 13
 62
   250
420
  2301728
370
    35
100
AcDbSpline
210
0.0
220
0.0
230
1.0
 70
    11
 71
     3
 72
    92
 73
    88
 74
     0
 42
0.0000000001
 43
0.0000000001
 12
1.0
 22
0.0
 32
0.0
 13
1.0
 23
0.0
 33
0.0
 40
0.0
 40
0.0
 40
0.0
 40
0.0
 40
1.0
 40
1.0
 40
1.0
 40
2.0
 40
2.0
 40
2.0
 40
3.0
 40
3.0
 40
3.0
 40
4.0
 40
4.0
 40
4.0
 40
5.0
 40
5.0
 40
5.0
 40
6.0
 40
6.0
 40
6.0
 40
7.0
 40
7.0
 40
7.0
 40
8.0
 40
8.0
 40
8.0
 40
9.0
 40
9.0
 40
9.0
 40
10.0
 40
10.0
 40
10.0
 40
11.0
 40
11.0
 40
11.0
 40
12.0
 40
12.0
 40
12.0
 40
13.0
 40
13.0
 40
13.0
 40
14.0
 40
14.0
 40
14.0
 40
15.0
 40
15.0
 40
15.0
 40
16.0
 40
16.0
 40
16.0
 40
17.0
 40
17.0
 40
17.0
 40
18.0
 40
18.0
 40
18.0
 40
19.0
 40
19.0
 40
19.0
 40
20.0
 40
20.0
 40
20.0
 40
21.0
 40
21.0
 40
21.0
 40
22.0
 40
22.0
 40
22.0
 40
23.0
 40
23.0
 40
23.0
 40
24.0
 40
24.0
 40
24.0
 40
25.0
 40
25.0
 40
25.0
 40
26.0
 40
26.0
 40
26.0
 40
27.0
 40
27.0
 40
27.0
 40
28.0
 40
28.0
 40
28.0
 40
29.0
 40
29.0
 40
29.0
 40
29.0
 10
188.6819932772631
 20
-104.5803618964033
 30
0.0
 10
188.6819932772631
 20
-104.5803618964033
 30
0.0
 10
176.7564466370647
 20
-104.5803618964033
 30
0.0
 10
176.7564466370647
 20
-104.5803618964033
 30
0.0
 10
176.7564466370647
 20
-104.5803618964033
 30
0.0
 10
162.6667142187459
 20
-104.5803618964033
 30
0.0
 10
162.6667142187459
 20
-104.5803618964033
 30
0.0
 10
162.6667142187459
 20
-104.5803618964033
 30
0.0
 10
156.2209352165248
 20
-98.10082206171018
 30
0.0
 10
156.2209352165248
 20
-98.10082206171018
 30
0.0
 10
156.2209352165248
 20
-98.10082206171018
 30
0.0
 10
56.71915643705055
 20
-98.10082206171018
 30
0.0
 10
56.71915643705055
 20
-98.10082206171018
 30
0.0
 10
56.71915643705055
 20
-98.10082206171018
 30
0.0
 10
48.83816934497661
 20
-98.10082206171018
 30
0.0
 10
48.83816934497661
 20
-98.10082206171018
 30
0.0
 10
48.83816934497661
 20
-98.10082206171018
 30
0.0
 10
43.55906170188008
 20
-103.0814091568674
 30
0.0
 10
43.55906170188008
 20
-103.0814091568674
 30
0.0
 10
43.17770893383143
 20
-103.4521080362986
 30
0.0
 10
43.44229226041467
 20
-104.100795797527
 30
0.0
 10
43.97488085793832
 20
-104.100795797527
 30
0.0
 10
43.97488085793832
 20
-104.100795797527
 30
0.0
 10
56.71915643705055
 20
-104.100795797527
 30
0.0
 10
56.71915643705055
 20
-104.100795797527
 30
0.0
 10
56.71915643705055
 20
-104.100795797527
 30
0.0
 10
56.71915643705055
 20
-110.5805120211045
 30
0.0
 10
56.71915643705055
 20
-110.5805120211045
 30
0.0
 10
56.71915643705055
 20
-110.5805120211045
 30
0.0
 10
42.7208970010409
 20
-110.5805120211045
 30
0.0
 10
42.7208970010409
 20
-110.5805120211045
 30
0.0
 10
42.7208970010409
 20
-110.5805120211045
 30
0.0
 10
42.7208970010409
 20
-116.1009549358222
 30
0.0
 10
42.7208970010409
 20
-116.1009549358222
 30
0.0
 10
42.7208970010409
 20
-116.1009549358222
 30
0.0
 10
82.16222766147571
 20
-116.1009549358222
 30
0.0
 10
82.16222766147571
 20
-116.1009549358222
 30
0.0
 10
82.16222766147571
 20
-116.1009549358222
 30
0.0
 10
82.16222766147571
 20
-110.1016486736674
 30
0.0
 10
82.16222766147571
 20
-110.1016486736674
 30
0.0
 10
82.16222766147571
 20
-110.1016486736674
 30
0.0
 10
85.16221754105096
 20
-110.1016486736674
 30
0.0
 10
85.16221754105096
 20
-110.1016486736674
 30
0.0
 10
85.16221754105096
 20
-110.1016486736674
 30
0.0
 10
85.16221754105096
 20
-116.1009549358222
 30
0.0
 10
85.16221754105096
 20
-116.1009549358222
 30
0.0
 10
85.16221754105096
 20
-116.1009549358222
 30
0.0
 10
109.6506397571505
 20
-116.1009549358222
 30
0.0
 10
109.6506397571505
 20
-116.1009549358222
 30
0.0
 10
109.6506397571505
 20
-116.1009549358222
 30
0.0
 10
109.6506397571505
 20
-110.1016486736674
 30
0.0
 10
109.6506397571505
 20
-110.1016486736674
 30
0.0
 10
109.6506397571505
 20
-110.1016486736674
 30
0.0
 10
112.6509757725318
 20
-110.1016486736674
 30
0.0
 10
112.6509757725318
 20
-110.1016486736674
 30
0.0
 10
112.6509757725318
 20
-110.1016486736674
 30
0.0
 10
112.6509757725318
 20
-116.1009549358222
 30
0.0
 10
112.6509757725318
 20
-116.1009549358222
 30
0.0
 10
112.6509757725318
 20
-116.1009549358222
 30
0.0
 10
137.161622369435
 20
-116.1009549358222
 30
0.0
 10
137.161622369435
 20
-116.1009549358222
 30
0.0
 10
137.161622369435
 20
-116.1009549358222
 30
0.0
 10
137.161622369435
 20
-110.1016486736674
 30
0.0
 10
137.161622369435
 20
-110.1016486736674
 30
0.0
 10
137.161622369435
 20
-110.1016486736674
 30
0.0
 10
140.1619620151122
 20
-110.1016486736674
 30
0.0
 10
140.1619620151122
 20
-110.1016486736674
 30
0.0
 10
140.1619620151122
 20
-110.1016486736674
 30
0.0
 10
140.1619620151122
 20
-116.1009549358222
 30
0.0
 10
140.1619620151122
 20
-116.1009549358222
 30
0.0
 10
140.1619620151122
 20
-116.1009549358222
 30
0.0
 10
176.7564466370647
 20
-116.1009549358222
 30
0.0
 10
176.7564466370647
 20
-116.1009549358222
 30
0.0
 10
176.7564466370647
 20
-116.1009549358222
 30
0.0
 10
176.7564466370647
 20
-110.1009812000051
 30
0.0
 10
176.7564466370647
 20
-110.1009812000051
 30
0.0
 10
176.7564466370647
 20
-110.1009812000051
 30
0.0
 10
188.449124672093
 20
-110.1009812000051
 30
0.0
 10
188.449124672093
 20
-110.1009812000051
 30
0.0
 10
189.1474129876115
 20
-110.1009812000051
 30
0.0
 10
189.7186307508163
 20
-109.5330442700499
 30
0.0
 10
189.7186307508163
 20
-108.8312634546205
 30
0.0
 10
189.7186307508163
 20
-108.8312634546205
 30
0.0
 10
189.7186307508163
 20
-105.6140713144757
 30
0.0
 10
189.7186307508163
 20
-105.6140713144757
 30
0.0
 10
189.7186307508163
 20
-105.042536051279
 30
0.0
 10
189.253181403916
 20
-104.5803618964033
 30
0.0
 10
188.6819932772631
 20
-104.5803618964033
 30
0.0
  0
ENDBLK
  5
B6
330
B3
100
AcDbEntity
  8
0
100
AcDbBlockEnd
  0
BLOCK
  5
BF
330
BD
100
AcDbEntity
  8
0
100
AcDbBlockBegin
  2
block 5
 70
     0
 10
0.0
 20
0.0
 30
0.0
  3
block 5
  1

  0
SPLINE
  5
C1
330
BD
100
AcDbEntity
  8
Calque 16
 62
   250
420
  2301728
370
    35
100
AcDbSpline
210
0.0
220
0.0
230
1.0
 70
    11
 71
     3
 72
   107
 73
   103
 74
     0
 42
0.0000000001
 43
0.0000000001
 12
1.0
 22
0.0
 32
0.0
 13
1.0
 23
0.0
 33
0.0
 40
0.0
 40
0.0
 40
0.0
 40
0.0
 40
1.0
 40
1.0
 40
1.0
 40
2.0
 40
2.0
 40
2.0
 40
3.0
 40
3.0
 40
3.0
 40
4.0
 40
4.0
 40
4.0
 40
5.0
 40
5.0
 40
5.0
 40
6.0
 40
6.0
 40
6.0
 40
7.0
 40
7.0
 40
7.0
 40
8.0
 40
8.0
 40
8.0
 40
9.0
 40
9.0
 40
9.0
 40
10.0
 40
10.0
 40
10.0
 40
11.0
 40
11.0
 40
11.0
 40
12.0
 40
12.0
 40
12.0
 40
13.0
 40
13.0
 40
13.0
 40
14.0
 40
14.0
 40
14.0
 40
15.0
 40
15.0
 40
15.0
 40
16.0
 40
16.0
 40
16.0
 40
17.0
 40
17.0
 40
17.0
 40
18.0
 40
18.0
 40
18.0
 40
19.0
 40
19.0
 40
19.0
 40
20.0
 40
20.0
 40
20.0
 40
21.0
 40
21.0
 40
21.0
 40
22.0
 40
22.0
 40
22.0
 40
23.0
 40
23.0
 40
23.0
 40
24.0
 40
24.0
 40
24.0
 40
25.0
 40
25.0
 40
25.0
 40
26.0
 40
26.0
 40
26.0
 40
27.0
 40
27.0
 40
27.0
 40
28.0
 40
28.0
 40
28.0
 40
29.0
 40
29.0
 40
29.0
 40
30.0
 40
30.0
 40
30.0
 40
31.0
 40
31.0
 40
31.0
 40
32.0
 40
32.0
 40
32.0
 40
33.0
 40
33.0
 40
33.0
 40
34.0
 40
34.0
 40
34.0
 40
34.0
 10
186.1974009181664
 20
-103.9761063844652
 30
0.0
 10
186.1974009181664
 20
-103.9761063844652
 30
0.0
 10
174.7376563866664
 20
-103.5382386178584
 30
0.0
 10
174.7376563866664
 20
-103.5382386178584
 30
0.0
 10
174.7376563866664
 20
-103.5382386178584
 30
0.0
 10
173.0988272618097
 20
-105.3162385724978
 30
0.0
 10
173.0988272618097
 20
-105.3162385724978
 30
0.0
 10
173.0988272618097
 20
-105.3162385724978
 30
0.0
 10
171.465501470146
 20
-103.4133552877108
 30
0.0
 10
171.465501470146
 20
-103.4133552877108
 30
0.0
 10
171.465501470146
 20
-103.4133552877108
 30
0.0
 10
161.0206689588381
 20
-103.0143989090004
 30
0.0
 10
161.0206689588381
 20
-103.0143989090004
 30
0.0
 10
158.166061809443
 20
-103.0143989090004
 30
0.0
 10
155.3675816030604
 20
-102.2149692071733
 30
0.0
 10
152.9405411094238
 20
-100.7058564678966
 30
0.0
 10
152.9405411094238
 20
-100.7058564678966
 30
0.0
 10
148.9107959344534
 20
-98.20039347626037
 30
0.0
 10
148.9107959344534
 20
-98.20039347626037
 30
0.0
 10
146.9622632063868
 20
-96.98927211826975
 30
0.0
 10
144.7167314840925
 20
-96.34763991241694
 30
0.0
 10
142.4253999887985
 20
-96.34763991241694
 30
0.0
 10
142.4253999887985
 20
-96.34763991241694
 30
0.0
 10
56.0590898395893
 20
-96.34763991241694
 30
0.0
 10
56.0590898395893
 20
-96.34763991241694
 30
0.0
 10
56.0590898395893
 20
-96.34763991241694
 30
0.0
 10
45.24461441253101
 20
-96.3443590791673
 30
0.0
 10
44.57193984246177
 20
-100.5564872727865
 30
0.0
 10
44.57193984246177
 20
-100.5564872727865
 30
0.0
 10
44.15957582910155
 20
-102.9970039388426
 30
0.0
 10
44.15957582910155
 20
-102.9970039388426
 30
0.0
 10
44.15957582910155
 20
-102.9970039388426
 30
0.0
 10
68.08884466305949
 20
-104.4477349835441
 30
0.0
 10
68.08884466305949
 20
-104.4477349835441
 30
0.0
 10
68.08884466305949
 20
-104.4477349835441
 30
0.0
 10
68.08884466305949
 20
-110.031040048195
 30
0.0
 10
68.08884466305949
 20
-110.031040048195
 30
0.0
 10
68.08884466305949
 20
-110.031040048195
 30
0.0
 10
58.48944407462727
 20
-110.031040048195
 30
0.0
 10
58.48944407462727
 20
-110.031040048195
 30
0.0
 10
56.61153983945176
 20
-110.031040048195
 30
0.0
 10
55.08930372872071
 20
-111.560828413185
 30
0.0
 10
55.08930372872071
 20
-113.4476928251188
 30
0.0
 10
55.08930372872071
 20
-113.4476928251188
 30
0.0
 10
55.08930372872071
 20
-116.3475994021758
 30
0.0
 10
55.08930372872071
 20
-116.3475994021758
 30
0.0
 10
55.08930372872071
 20
-116.3475994021758
 30
0.0
 10
87.83632110370384
 20
-116.3475994021758
 30
0.0
 10
87.83632110370384
 20
-116.3475994021758
 30
0.0
 10
87.83632110370384
 20
-116.3475994021758
 30
0.0
 10
87.83632110370384
 20
-109.6815459611292
 30
0.0
 10
87.83632110370384
 20
-109.6815459611292
 30
0.0
 10
87.83632110370384
 20
-109.6815459611292
 30
0.0
 10
90.82149130532358
 20
-109.6815459611292
 30
0.0
 10
90.82149130532358
 20
-109.6815459611292
 30
0.0
 10
90.82149130532358
 20
-109.6815459611292
 30
0.0
 10
90.82149130532358
 20
-116.3475994021758
 30
0.0
 10
90.82149130532358
 20
-116.3475994021758
 30
0.0
 10
90.82149130532358
 20
-116.3475994021758
 30
0.0
 10
115.1898626280791
 20
-116.3475994021758
 30
0.0
 10
115.1898626280791
 20
-116.3475994021758
 30
0.0
 10
115.1898626280791
 20
-116.3475994021758
 30
0.0
 10
115.1898626280791
 20
-109.6815459611292
 30
0.0
 10
115.1898626280791
 20
-109.6815459611292
 30
0.0
 10
115.1898626280791
 20
-109.6815459611292
 30
0.0
 10
118.1750328296991
 20
-109.6815459611292
 30
0.0
 10
118.1750328296991
 20
-109.6815459611292
 30
0.0
 10
118.1750328296991
 20
-109.6815459611292
 30
0.0
 10
118.1750328296991
 20
-116.3475994021758
 30
0.0
 10
118.1750328296991
 20
-116.3475994021758
 30
0.0
 10
118.1750328296991
 20
-116.3475994021758
 30
0.0
 10
142.5656291518876
 20
-116.3475994021758
 30
0.0
 10
142.5656291518876
 20
-116.3475994021758
 30
0.0
 10
142.5656291518876
 20
-116.3475994021758
 30
0.0
 10
142.5656291518876
 20
-109.6815459611292
 30
0.0
 10
142.5656291518876
 20
-109.6815459611292
 30
0.0
 10
142.5656291518876
 20
-109.6815459611292
 30
0.0
 10
145.5511521312762
 20
-109.6815459611292
 30
0.0
 10
145.5511521312762
 20
-109.6815459611292
 30
0.0
 10
145.5511521312762
 20
-109.6815459611292
 30
0.0
 10
145.5511521312762
 20
-116.3475994021758
 30
0.0
 10
145.5511521312762
 20
-116.3475994021758
 30
0.0
 10
145.5511521312762
 20
-116.3475994021758
 30
0.0
 10
177.1743629911675
 20
-116.3475994021758
 30
0.0
 10
177.1743629911675
 20
-116.3475994021758
 30
0.0
 10
177.1743629911675
 20
-116.3475994021758
 30
0.0
 10
177.1743629911675
 20
-112.527686444074
 30
0.0
 10
177.1743629911675
 20
-112.527686444074
 30
0.0
 10
177.1743629911675
 20
-110.9557087064007
 30
0.0
 10
178.4424932365926
 20
-109.6811931833608
 30
0.0
 10
180.006921530014
 20
-109.6811931833608
 30
0.0
 10
180.006921530014
 20
-109.6811931833608
 30
0.0
 10
186.8664382994576
 20
-109.6811931833608
 30
0.0
 10
186.8664382994576
 20
-109.6811931833608
 30
0.0
 10
187.5616574483878
 20
-109.6811931833608
 30
0.0
 10
189.2277210169941
 20
-109.050038477241
 30
0.0
 10
189.2277210169941
 20
-108.2700821082501
 30
0.0
 10
189.2277210169941
 20
-108.2700821082501
 30
0.0
 10
189.2277210169941
 20
-105.6340560643896
 30
0.0
 10
189.2277210169941
 20
-105.6340560643896
 30
0.0
 10
189.2277210169941
 20
-104.9991266361436
 30
0.0
 10
186.7658613575791
 20
-103.9761063844652
 30
0.0
 10
186.1974009181664
 20
-103.9761063844652
 30
0.0
  0
ENDBLK
  5
C0
330
BD
100
AcDbEntity
  8
0
100
AcDbBlockEnd
  0
BLOCK
  5
C7
330
C5
100
AcDbEntity
  8
0
100
AcDbBlockBegin
  2
block 6
 70
     0
 10
0.0
 20
0.0
 30
0.0
  3
block 6
  1

  0
POLYLINE
  5
C9
330
C5
100
AcDbEntity
  8
Calque 18
 62
   250
420
  2301728
370
    35
100
AcDb2dPolyline
 66
     1
 10
0.0
 20
0.0
 30
0.0
  0
VERTEX
  5
CA
330
C9
100
AcDbEntity
  8
Calque 18
 62
   250
420
  2301728
370
    35
100
AcDbVertex
100
AcDb2dVertex
 10
88.03396134906276
 20
-89.68903521886428
 30
0.0
  0
VERTEX
  5
CB
330
C9
100
AcDbEntity
  8
Calque 18
 62
   250
420
  2301728
370
    35
100
AcDbVertex
100
AcDb2dVertex
 10
73.84052925105505
 20
-114.9152284410193
 30
0.0
  0
VERTEX
  5
CC
330
C9
100
AcDbEntity
  8
Calque 18
 62
   250
420
  2301728
370
    35
100
AcDbVertex
100
AcDb2dVertex
 10
74.4536681346031
 20
-115.9491158406884
 30
0.0
  0
VERTEX
  5
CD
330
C9
100
AcDbEntity
  8
Calque 18
 62
   250
420
  2301728
370
    35
100
AcDbVertex
100
AcDb2dVertex
 10
154.0909573391308
 20
-115.9491158406884
 30
0.0
  0
VERTEX
  5
CE
330
C9
100
AcDbEntity
  8
Calque 18
 62
   250
420
  2301728
370
    35
100
AcDbVertex
100
AcDb2dVertex
 10
155.1949432834769
 20
-115.2144009136818
 30
0.0
  0
VERTEX
  5
CF
330
C9
100
AcDbEntity
  8
Calque 18
 62
   250
420
  2301728
370
    35
100
AcDbVertex
100
AcDb2dVertex
 10
168.8547764624594
 20
-89.88300794337049
 30
0.0
  0
VERTEX
  5
D0
330
C9
100
AcDbEntity
  8
Calque 18
 62
   250
420
  2301728
370
    35
100
AcDbVertex
100
AcDb2dVertex
 10
168.1916373368822
 20
-88.94912093370198
 30
0.0
  0
VERTEX
  5
D1
330
C9
100
AcDbEntity
  8
Calque 18
 62
   250
420
  2301728
370
    35
100
AcDbVertex
100
AcDb2dVertex
 10
89.55116867290249
 20
-88.94911584743882
 30
0.0
  0
VERTEX
  5
D2
330
C9
100
AcDbEntity
  8
Calque 18
 62
   250
420
  2301728
370
    35
100
AcDbVertex
100
AcDb2dVertex
 10
88.03396134906276
 20
-89.68903521886428
 30
0.0
  0
SEQEND
  5
D3
330
C9
100
AcDbEntity
  8
Calque 18
 62
   250
420
  2301728
370
    35
  0
ENDBLK
  5
C8
330
C5
100
AcDbEntity
  8
0
100
AcDbBlockEnd
  0
BLOCK
  5
D7
330
D5
100
AcDbEntity
  8
0
100
AcDbBlockBegin
  2
block 7
 70
     0
 10
0.0
 20
0.0
 30
0.0
  3
block 7
  1

  0
POLYLINE
  5
D9
330
D5
100
AcDbEntity
  8
Calque 19
 62
   250
420
  2301728
370
    35
100
AcDb2dPolyline
 66
     1
 10
0.0
 20
0.0
 30
0.0
  0
VERTEX
  5
DA
330
D9
100
AcDbEntity
  8
Calque 19
 62
   250
420
  2301728
370
    35
100
AcDbVertex
100
AcDb2dVertex
 10
64.90457143524023
 20
-89.6581485158938
 30
0.0
  0
VERTEX
  5
DB
330
D9
100
AcDbEntity
  8
Calque 19
 62
   250
420
  2301728
370
    35
100
AcDbVertex
100
AcDb2dVertex
 10
49.71113933723601
 20
-114.8843417380489
 30
0.0
  0
VERTEX
  5
DC
330
D9
100
AcDbEntity
  8
Calque 19
 62
   250
420
  2301728
370
    35
100
AcDbVertex
100
AcDb2dVertex
 10
50.32427822078309
 20
-115.918229137717
 30
0.0
  0
VERTEX
  5
DD
330
D9
100
AcDbEntity
  8
Calque 19
 62
   250
420
  2301728
370
    35
100
AcDbVertex
100
AcDb2dVertex
 10
177.7351417404496
 20
-115.918229137717
 30
0.0
  0
VERTEX
  5
DE
330
D9
100
AcDbEntity
  8
Calque 19
 62
   250
420
  2301728
370
    35
100
AcDbVertex
100
AcDb2dVertex
 10
178.8391276847958
 20
-115.183514210711
 30
0.0
  0
VERTEX
  5
DF
330
D9
100
AcDbEntity
  8
Calque 19
 62
   250
420
  2301728
370
    35
100
AcDbVertex
100
AcDb2dVertex
 10
194.4540737833188
 20
-89.85212124040002
 30
0.0
  0
VERTEX
  5
E0
330
D9
100
AcDbEntity
  8
Calque 19
 62
   250
420
  2301728
370
    35
100
AcDbVertex
100
AcDb2dVertex
 10
193.7909346577416
 20
-88.91823423073151
 30
0.0
  0
VERTEX
  5
E1
330
D9
100
AcDbEntity
  8
Calque 19
 62
   250
420
  2301728
370
    35
100
AcDbVertex
100
AcDb2dVertex
 10
66.42177875907899
 20
-88.91822914446834
 30
0.0
  0
VERTEX
  5
E2
330
D9
100
AcDbEntity
  8
Calque 19
 62
   250
420
  2301728
370
    35
100
AcDbVertex
100
AcDb2dVertex
 10
64.90457143524023
 20
-89.6581485158938
 30
0.0
  0
SEQEND
  5
E3
330
D9
100
AcDbEntity
  8
Calque 19
 62
   250
420
  2301728
370
    35
  0
ENDBLK
  5
D8
330
D5
100
AcDbEntity
  8
0
100
AcDbBlockEnd
  0
ENDSEC
  0
SECTION
  2
ENTITIES
  0
SPLINE
  5
41
330
1F
100
AcDbEntity
  8
Calque 1
 62
   250
420
  2301728
370
    35
100
AcDbSpline
210
0.0
220
0.0
230
1.0
 70
    11
 71
     3
 72
    92
 73
    88
 74
     0
 42
0.0000000001
 43
0.0000000001
 12
1.0
 22
0.0
 32
0.0
 13
1.0
 23
0.0
 33
0.0
 40
0.0
 40
0.0
 40
0.0
 40
0.0
 40
1.0
 40
1.0
 40
1.0
 40
2.0
 40
2.0
 40
2.0
 40
3.0
 40
3.0
 40
3.0
 40
4.0
 40
4.0
 40
4.0
 40
5.0
 40
5.0
 40
5.0
 40
6.0
 40
6.0
 40
6.0
 40
7.0
 40
7.0
 40
7.0
 40
8.0
 40
8.0
 40
8.0
 40
9.0
 40
9.0
 40
9.0
 40
10.0
 40
10.0
 40
10.0
 40
11.0
 40
11.0
 40
11.0
 40
12.0
 40
12.0
 40
12.0
 40
13.0
 40
13.0
 40
13.0
 40
14.0
 40
14.0
 40
14.0
 40
15.0
 40
15.0
 40
15.0
 40
16.0
 40
16.0
 40
16.0
 40
17.0
 40
17.0
 40
17.0
 40
18.0
 40
18.0
 40
18.0
 40
19.0
 40
19.0
 40
19.0
 40
20.0
 40
20.0
 40
20.0
 40
21.0
 40
21.0
 40
21.0
 40
22.0
 40
22.0
 40
22.0
 40
23.0
 40
23.0
 40
23.0
 40
24.0
 40
24.0
 40
24.0
 40
25.0
 40
25.0
 40
25.0
 40
26.0
 40
26.0
 40
26.0
 40
27.0
 40
27.0
 40
27.0
 40
28.0
 40
28.0
 40
28.0
 40
29.0
 40
29.0
 40
29.0
 40
29.0
 10
187.7545626640191
 20
-104.1271482331635
 30
0.0
 10
187.7545626640191
 20
-104.1271482331635
 30
0.0
 10
173.4246886495073
 20
-103.3011896431243
 30
0.0
 10
173.4246886495073
 20
-103.3011896431243
 30
0.0
 10
173.4246886495073
 20
-103.3011896431243
 30
0.0
 10
171.397592312334
 20
-105.2029087612741
 30
0.0
 10
171.397592312334
 20
-105.2029087612741
 30
0.0
 10
171.397592312334
 20
-105.2029087612741
 30
0.0
 10
169.2006334794942
 20
-103.0612654825786
 30
0.0
 10
169.2006334794942
 20
-103.0612654825786
 30
0.0
 10
169.2006334794942
 20
-103.0612654825786
 30
0.0
 10
46.56523855262787
 20
-96.05548705019983
 30
0.0
 10
46.56523855262787
 20
-96.05548705019983
 30
0.0
 10
44.52935804901195
 20
-95.93988177537139
 30
0.0
 10
42.81231809281729
 20
-97.49760729118606
 30
0.0
 10
42.81231809281729
 20
-99.45958085224305
 30
0.0
 10
42.81231809281729
 20
-101.2033260855345
 30
0.0
 10
44.22032472356271
 20
-102.6466457709346
 30
0.0
 10
46.02866356631736
 20
-102.7575591014379
 30
0.0
 10
46.02866356631736
 20
-102.7575591014379
 30
0.0
 10
66.74162220455179
 20
-104.0262185135165
 30
0.0
 10
66.74162220455179
 20
-104.0262185135165
 30
0.0
 10
66.74162220455179
 20
-104.0262185135165
 30
0.0
 10
66.74162220455179
 20
-109.6673819807089
 30
0.0
 10
66.74162220455179
 20
-109.6673819807089
 30
0.0
 10
66.74162220455179
 20
-109.6673819807089
 30
0.0
 10
57.64207243670096
 20
-109.6673819807089
 30
0.0
 10
57.64207243670096
 20
-109.6673819807089
 30
0.0
 10
55.76434220682807
 20
-109.6673819807089
 30
0.0
 10
54.24245891232121
 20
-111.2128661079473
 30
0.0
 10
54.24245891232121
 20
-113.1192066148681
 30
0.0
 10
54.24245891232121
 20
-113.1192066148681
 30
0.0
 10
54.24245891232121
 20
-116.0494140401126
 30
0.0
 10
54.24245891232121
 20
-116.0494140401126
 30
0.0
 10
54.24245891232121
 20
-116.0494140401126
 30
0.0
 10
86.48874586742767
 20
-116.0494140401126
 30
0.0
 10
86.48874586742767
 20
-116.0494140401126
 30
0.0
 10
86.48874586742767
 20
-116.0494140401126
 30
0.0
 10
86.48874586742767
 20
-109.3142867119393
 30
0.0
 10
86.48874586742767
 20
-109.3142867119393
 30
0.0
 10
86.48874586742767
 20
-109.3142867119393
 30
0.0
 10
89.47423356903931
 20
-109.3142867119393
 30
0.0
 10
89.47423356903931
 20
-109.3142867119393
 30
0.0
 10
89.47423356903931
 20
-109.3142867119393
 30
0.0
 10
89.47423356903931
 20
-116.0494140401126
 30
0.0
 10
89.47423356903931
 20
-116.0494140401126
 30
0.0
 10
89.47423356903931
 20
-116.0494140401126
 30
0.0
 10
113.8424285029104
 20
-116.0494140401126
 30
0.0
 10
113.8424285029104
 20
-116.0494140401126
 30
0.0
 10
113.8424285029104
 20
-116.0494140401126
 30
0.0
 10
113.8424285029104
 20
-109.3142867119393
 30
0.0
 10
113.8424285029104
 20
-109.3142867119393
 30
0.0
 10
113.8424285029104
 20
-109.3142867119393
 30
0.0
 10
116.8279514822993
 20
-109.3142867119393
 30
0.0
 10
116.8279514822993
 20
-109.3142867119393
 30
0.0
 10
116.8279514822993
 20
-109.3142867119393
 30
0.0
 10
116.8279514822993
 20
-116.0494140401126
 30
0.0
 10
116.8279514822993
 20
-116.0494140401126
 30
0.0
 10
116.8279514822993
 20
-116.0494140401126
 30
0.0
 10
145.1617918705539
 20
-116.0494140401126
 30
0.0
 10
145.1617918705539
 20
-116.0494140401126
 30
0.0
 10
145.1617918705539
 20
-116.0494140401126
 30
0.0
 10
145.1617918705539
 20
-109.3142867119393
 30
0.0
 10
145.1617918705539
 20
-109.3142867119393
 30
0.0
 10
145.1617918705539
 20
-109.3142867119393
 30
0.0
 10
148.1473148499424
 20
-109.3142867119393
 30
0.0
 10
148.1473148499424
 20
-109.3142867119393
 30
0.0
 10
148.1473148499424
 20
-109.3142867119393
 30
0.0
 10
148.1473148499424
 20
-116.0494140401126
 30
0.0
 10
148.1473148499424
 20
-116.0494140401126
 30
0.0
 10
148.1473148499424
 20
-116.0494140401126
 30
0.0
 10
176.3974410736661
 20
-116.0494140401126
 30
0.0
 10
176.3974410736661
 20
-116.0494140401126
 30
0.0
 10
176.3974410736661
 20
-116.0494140401126
 30
0.0
 10
176.3974410736661
 20
-112.1900605274618
 30
0.0
 10
176.3974410736661
 20
-112.1900605274618
 30
0.0
 10
176.3974410736661
 20
-110.6015375124325
 30
0.0
 10
177.665606596868
 20
-109.3141074907504
 30
0.0
 10
179.2299996125126
 20
-109.3141074907504
 30
0.0
 10
179.2299996125126
 20
-109.3141074907504
 30
0.0
 10
184.8338039139921
 20
-109.3141074907504
 30
0.0
 10
184.8338039139921
 20
-109.3141074907504
 30
0.0
 10
184.8338039139921
 20
-109.3141074907504
 30
0.0
 10
187.7676449502547
 20
-107.712993141681
 30
0.0
 10
187.7676449502547
 20
-107.712993141681
 30
0.0
 10
187.7676449502547
 20
-107.712993141681
 30
0.0
 10
187.7545626640191
 20
-104.1271482331635
 30
0.0
 10
187.7545626640191
 20
-104.1271482331635
 30
0.0
  0
SPLINE
  5
43
330
1F
100
AcDbEntity
  8
Calque 3
 62
   250
420
  2301728
370
    35
100
AcDbSpline
210
0.0
220
0.0
230
1.0
 70
    11
 71
     3
 72
    92
 73
    88
 74
     0
 42
0.0000000001
 43
0.0000000001
 12
1.0
 22
0.0
 32
0.0
 13
1.0
 23
0.0
 33
0.0
 40
0.0
 40
0.0
 40
0.0
 40
0.0
 40
1.0
 40
1.0
 40
1.0
 40
2.0
 40
2.0
 40
2.0
 40
3.0
 40
3.0
 40
3.0
 40
4.0
 40
4.0
 40
4.0
 40
5.0
 40
5.0
 40
5.0
 40
6.0
 40
6.0
 40
6.0
 40
7.0
 40
7.0
 40
7.0
 40
8.0
 40
8.0
 40
8.0
 40
9.0
 40
9.0
 40
9.0
 40
10.0
 40
10.0
 40
10.0
 40
11.0
 40
11.0
 40
11.0
 40
12.0
 40
12.0
 40
12.0
 40
13.0
 40
13.0
 40
13.0
 40
14.0
 40
14.0
 40
14.0
 40
15.0
 40
15.0
 40
15.0
 40
16.0
 40
16.0
 40
16.0
 40
17.0
 40
17.0
 40
17.0
 40
18.0
 40
18.0
 40
18.0
 40
19.0
 40
19.0
 40
19.0
 40
20.0
 40
20.0
 40
20.0
 40
21.0
 40
21.0
 40
21.0
 40
22.0
 40
22.0
 40
22.0
 40
23.0
 40
23.0
 40
23.0
 40
24.0
 40
24.0
 40
24.0
 40
25.0
 40
25.0
 40
25.0
 40
26.0
 40
26.0
 40
26.0
 40
27.0
 40
27.0
 40
27.0
 40
28.0
 40
28.0
 40
28.0
 40
29.0
 40
29.0
 40
29.0
 40
29.0
 10
187.8204615512267
 20
-103.7119462070664
 30
0.0
 10
187.8204615512267
 20
-103.7119462070664
 30
0.0
 10
173.490587536715
 20
-102.8448184514109
 30
0.0
 10
173.490587536715
 20
-102.8448184514109
 30
0.0
 10
173.490587536715
 20
-102.8448184514109
 30
0.0
 10
171.4634911995416
 20
-104.8413965617227
 30
0.0
 10
171.4634911995416
 20
-104.8413965617227
 30
0.0
 10
171.4634911995416
 20
-104.8413965617227
 30
0.0
 10
169.2665323667018
 20
-102.5927910067294
 30
0.0
 10
169.2665323667018
 20
-102.5927910067294
 30
0.0
 10
169.2665323667018
 20
-102.5927910067294
 30
0.0
 10
46.63113743983553
 20
-95.2368483677286
 30
0.0
 10
46.63113743983553
 20
-95.2368483677286
 30
0.0
 10
44.59525693621962
 20
-95.11538698193844
 30
0.0
 10
42.87821698002496
 20
-96.75097055132234
 30
0.0
 10
42.87821698002496
 20
-98.81112216543016
 30
0.0
 10
42.87821698002496
 20
-100.6420035076094
 30
0.0
 10
44.28622361077039
 20
-102.1575015245014
 30
0.0
 10
46.0945624535247
 20
-102.2739534659749
 30
0.0
 10
46.0945624535247
 20
-102.2739534659749
 30
0.0
 10
66.8075210917601
 20
-103.6060070431025
 30
0.0
 10
66.8075210917601
 20
-103.6060070431025
 30
0.0
 10
66.8075210917601
 20
-103.6060070431025
 30
0.0
 10
66.8075210917601
 20
-109.5291457808792
 30
0.0
 10
66.8075210917601
 20
-109.5291457808792
 30
0.0
 10
66.8075210917601
 20
-109.5291457808792
 30
0.0
 10
57.70797132390862
 20
-109.5291457808792
 30
0.0
 10
57.70797132390862
 20
-109.5291457808792
 30
0.0
 10
55.83024109403542
 20
-109.5291457808792
 30
0.0
 10
54.30835779952888
 20
-111.1519587950339
 30
0.0
 10
54.30835779952888
 20
-113.1535845773012
 30
0.0
 10
54.30835779952888
 20
-113.1535845773012
 30
0.0
 10
54.30835779952888
 20
-116.2301947765885
 30
0.0
 10
54.30835779952888
 20
-116.2301947765885
 30
0.0
 10
54.30835779952888
 20
-116.2301947765885
 30
0.0
 10
86.55464475463535
 20
-116.2301947765885
 30
0.0
 10
86.55464475463535
 20
-116.2301947765885
 30
0.0
 10
86.55464475463535
 20
-116.2301947765885
 30
0.0
 10
86.55464475463535
 20
-109.1584821792248
 30
0.0
 10
86.55464475463535
 20
-109.1584821792248
 30
0.0
 10
86.55464475463535
 20
-109.1584821792248
 30
0.0
 10
89.54013245624698
 20
-109.1584821792248
 30
0.0
 10
89.54013245624698
 20
-109.1584821792248
 30
0.0
 10
89.54013245624698
 20
-109.1584821792248
 30
0.0
 10
89.54013245624698
 20
-116.2301947765885
 30
0.0
 10
89.54013245624698
 20
-116.2301947765885
 30
0.0
 10
89.54013245624698
 20
-116.2301947765885
 30
0.0
 10
113.9083273901181
 20
-116.2301947765885
 30
0.0
 10
113.9083273901181
 20
-116.2301947765885
 30
0.0
 10
113.9083273901181
 20
-116.2301947765885
 30
0.0
 10
113.9083273901181
 20
-109.1584821792248
 30
0.0
 10
113.9083273901181
 20
-109.1584821792248
 30
0.0
 10
113.9083273901181
 20
-109.1584821792248
 30
0.0
 10
116.8938503695069
 20
-109.1584821792248
 30
0.0
 10
116.8938503695069
 20
-109.1584821792248
 30
0.0
 10
116.8938503695069
 20
-109.1584821792248
 30
0.0
 10
116.8938503695069
 20
-116.2301947765885
 30
0.0
 10
116.8938503695069
 20
-116.2301947765885
 30
0.0
 10
116.8938503695069
 20
-116.2301947765885
 30
0.0
 10
145.2276907577616
 20
-116.2301947765885
 30
0.0
 10
145.2276907577616
 20
-116.2301947765885
 30
0.0
 10
145.2276907577616
 20
-116.2301947765885
 30
0.0
 10
145.2276907577616
 20
-109.1584821792248
 30
0.0
 10
145.2276907577616
 20
-109.1584821792248
 30
0.0
 10
145.2276907577616
 20
-109.1584821792248
 30
0.0
 10
148.2132137371501
 20
-109.1584821792248
 30
0.0
 10
148.2132137371501
 20
-109.1584821792248
 30
0.0
 10
148.2132137371501
 20
-109.1584821792248
 30
0.0
 10
148.2132137371501
 20
-116.2301947765885
 30
0.0
 10
148.2132137371501
 20
-116.2301947765885
 30
0.0
 10
148.2132137371501
 20
-116.2301947765885
 30
0.0
 10
176.4633399608738
 20
-116.2301947765885
 30
0.0
 10
176.4633399608738
 20
-116.2301947765885
 30
0.0
 10
176.4633399608738
 20
-116.2301947765885
 30
0.0
 10
176.4633399608738
 20
-112.1779071021928
 30
0.0
 10
176.4633399608738
 20
-112.1779071021928
 30
0.0
 10
176.4633399608738
 20
-110.5099738114124
 30
0.0
 10
177.7315054840757
 20
-109.158129401456
 30
0.0
 10
179.2958984997203
 20
-109.158129401456
 30
0.0
 10
179.2958984997203
 20
-109.158129401456
 30
0.0
 10
184.8997028011998
 20
-109.158129401456
 30
0.0
 10
184.8997028011998
 20
-109.158129401456
 30
0.0
 10
184.8997028011998
 20
-109.158129401456
 30
0.0
 10
187.8335438374623
 20
-107.4770727776767
 30
0.0
 10
187.8335438374623
 20
-107.4770727776767
 30
0.0
 10
187.8335438374623
 20
-107.4770727776767
 30
0.0
 10
187.8204615512267
 20
-103.7119462070664
 30
0.0
 10
187.8204615512267
 20
-103.7119462070664
 30
0.0
  0
POLYLINE
  5
45
330
1F
100
AcDbEntity
  8
Calque 2
 62
   250
420
  2301728
370
    35
100
AcDb2dPolyline
 66
     1
 10
0.0
 20
0.0
 30
0.0
  0
VERTEX
  5
46
330
45
100
AcDbEntity
  8
Calque 2
 62
   250
420
  2301728
370
    35
100
AcDbVertex
100
AcDb2dVertex
 10
187.8678161976991
 20
-102.7759918467989
 30
0.0
  0
VERTEX
  5
47
330
45
100
AcDbEntity
  8
Calque 2
 62
   250
420
  2301728
370
    35
100
AcDbVertex
100
AcDb2dVertex
 10
170.3343377561265
 20
-102.7887624020287
 30
0.0
  0
VERTEX
  5
48
330
45
100
AcDbEntity
  8
Calque 2
 62
   250
420
  2301728
370
    35
100
AcDbVertex
100
AcDb2dVertex
 10
164.7601667872244
 20
-90.30787299822016
 30
0.0
  0
VERTEX
  5
49
330
45
100
AcDbEntity
  8
Calque 2
 62
   250
420
  2301728
370
    35
100
AcDbVertex
100
AcDb2dVertex
 10
106.7430404895865
 20
-90.30787299822016
 30
0.0
  0
VERTEX
  5
4A
330
45
100
AcDbEntity
  8
Calque 2
 62
   250
420
  2301728
370
    35
100
AcDbVertex
100
AcDb2dVertex
 10
106.7430404895865
 20
-102.7880568464911
 30
0.0
  0
VERTEX
  5
4B
330
45
100
AcDbEntity
  8
Calque 2
 62
   250
420
  2301728
370
    35
100
AcDbVertex
100
AcDb2dVertex
 10
104.6017499886598
 20
-102.7887624020287
 30
0.0
  0
VERTEX
  5
4C
330
45
100
AcDbEntity
  8
Calque 2
 62
   250
420
  2301728
370
    35
100
AcDbVertex
100
AcDb2dVertex
 10
99.02704985310444
 20
-90.30787299822016
 30
0.0
  0
VERTEX
  5
4D
330
45
100
AcDbEntity
  8
Calque 2
 62
   250
420
  2301728
370
    35
100
AcDbVertex
100
AcDb2dVertex
 10
42.86768656362695
 20
-90.30787299822016
 30
0.0
  0
VERTEX
  5
4E
330
45
100
AcDbEntity
  8
Calque 2
 62
   250
420
  2301728
370
    35
100
AcDbVertex
100
AcDb2dVertex
 10
42.86768656362695
 20
-102.7281199035758
 30
0.0
  0
VERTEX
  5
4F
330
45
100
AcDbEntity
  8
Calque 2
 62
   250
420
  2301728
370
    35
100
AcDbVertex
100
AcDb2dVertex
 10
58.17252672872382
 20
-102.72603851474
 30
0.0
  0
VERTEX
  5
50
330
45
100
AcDbEntity
  8
Calque 2
 62
   250
420
  2301728
370
    35
100
AcDbVertex
100
AcDb2dVertex
 10
58.17252672872382
 20
-109.338399179378
 30
0.0
  0
VERTEX
  5
51
330
45
100
AcDbEntity
  8
Calque 2
 62
   250
420
  2301728
370
    35
100
AcDbVertex
100
AcDb2dVertex
 10
42.86768656362695
 20
-109.338399179378
 30
0.0
  0
VERTEX
  5
52
330
45
100
AcDbEntity
  8
Calque 2
 62
   250
420
  2301728
370
    35
100
AcDbVertex
100
AcDb2dVertex
 10
42.86768656362695
 20
-116.3079826126799
 30
0.0
  0
VERTEX
  5
53
330
45
100
AcDbEntity
  8
Calque 2
 62
   250
420
  2301728
370
    35
100
AcDbVertex
100
AcDb2dVertex
 10
73.6189718902074
 20
-116.3079826126799
 30
0.0
  0
VERTEX
  5
54
330
45
100
AcDbEntity
  8
Calque 2
 62
   250
420
  2301728
370
    35
100
AcDbVertex
100
AcDb2dVertex
 10
73.6189718902074
 20
-110.7572713654017
 30
0.0
  0
VERTEX
  5
55
330
45
100
AcDbEntity
  8
Calque 2
 62
   250
420
  2301728
370
    35
100
AcDbVertex
100
AcDb2dVertex
 10
76.7743220874855
 20
-110.7572713654017
 30
0.0
  0
VERTEX
  5
56
330
45
100
AcDbEntity
  8
Calque 2
 62
   250
420
  2301728
370
    35
100
AcDbVertex
100
AcDb2dVertex
 10
76.7743220874855
 20
-116.3079826126799
 30
0.0
  0
VERTEX
  5
57
330
45
100
AcDbEntity
  8
Calque 2
 62
   250
420
  2301728
370
    35
100
AcDbVertex
100
AcDb2dVertex
 10
135.111347265851
 20
-116.3079826126799
 30
0.0
  0
VERTEX
  5
58
330
45
100
AcDbEntity
  8
Calque 2
 62
   250
420
  2301728
370
    35
100
AcDbVertex
100
AcDb2dVertex
 10
135.111347265851
 20
-110.7572713654017
 30
0.0
  0
VERTEX
  5
59
330
45
100
AcDbEntity
  8
Calque 2
 62
   250
420
  2301728
370
    35
100
AcDbVertex
100
AcDb2dVertex
 10
138.2670546407907
 20
-110.7572713654017
 30
0.0
  0
VERTEX
  5
5A
330
45
100
AcDbEntity
  8
Calque 2
 62
   250
420
  2301728
370
    35
100
AcDbVertex
100
AcDb2dVertex
 10
138.2670546407907
 20
-116.3079826126799
 30
0.0
  0
VERTEX
  5
5B
330
45
100
AcDbEntity
  8
Calque 2
 62
   250
420
  2301728
370
    35
100
AcDbVertex
100
AcDb2dVertex
 10
172.9501849116129
 20
-116.3079826126799
 30
0.0
  0
VERTEX
  5
5C
330
45
100
AcDbEntity
  8
Calque 2
 62
   250
420
  2301728
370
    35
100
AcDbVertex
100
AcDb2dVertex
 10
172.9501849116129
 20
-109.3885289003216
 30
0.0
  0
VERTEX
  5
5D
330
45
100
AcDbEntity
  8
Calque 2
 62
   250
420
  2301728
370
    35
100
AcDbVertex
100
AcDb2dVertex
 10
187.8678161976991
 20
-109.3885289003216
 30
0.0
  0
VERTEX
  5
5E
330
45
100
AcDbEntity
  8
Calque 2
 62
   250
420
  2301728
370
    35
100
AcDbVertex
100
AcDb2dVertex
 10
187.8678161976991
 20
-102.7759918467989
 30
0.0
  0
SEQEND
  5
5F
330
45
100
AcDbEntity
  8
Calque 2
 62
   250
420
  2301728
370
    35
  0
POLYLINE
  5
61
330
1F
100
AcDbEntity
  8
Calque 4
 62
   250
420
  2301728
370
    35
100
AcDb2dPolyline
 66
     1
 10
0.0
 20
0.0
 30
0.0
  0
VERTEX
  5
62
330
61
100
AcDbEntity
  8
Calque 4
 62
   250
420
  2301728
370
    35
100
AcDbVertex
100
AcDb2dVertex
 10
158.0897518748184
 20
-102.5626935697161
 30
0.0
  0
VERTEX
  5
63
330
61
100
AcDbEntity
  8
Calque 4
 62
   250
420
  2301728
370
    35
100
AcDbVertex
100
AcDb2dVertex
 10
148.7263243359216
 20
-76.43075090306422
 30
0.0
  0
VERTEX
  5
64
330
61
100
AcDbEntity
  8
Calque 4
 62
   250
420
  2301728
370
    35
100
AcDbVertex
100
AcDb2dVertex
 10
108.9819928498839
 20
-76.43075090306422
 30
0.0
  0
VERTEX
  5
65
330
61
100
AcDbEntity
  8
Calque 4
 62
   250
420
  2301728
370
    35
100
AcDbVertex
100
AcDb2dVertex
 10
108.9819928498839
 20
-102.4741463497533
 30
0.0
  0
VERTEX
  5
66
330
61
100
AcDbEntity
  8
Calque 4
 62
   250
420
  2301728
370
    35
100
AcDbVertex
100
AcDb2dVertex
 10
105.7072626556511
 20
-102.4744991275217
 30
0.0
  0
VERTEX
  5
67
330
61
100
AcDbEntity
  8
Calque 4
 62
   250
420
  2301728
370
    35
100
AcDbVertex
100
AcDb2dVertex
 10
96.28869595149436
 20
-76.43075090306422
 30
0.0
  0
VERTEX
  5
68
330
61
100
AcDbEntity
  8
Calque 4
 62
   250
420
  2301728
370
    35
100
AcDbVertex
100
AcDb2dVertex
 10
56.59671668634333
 20
-76.43075090306422
 30
0.0
  0
VERTEX
  5
69
330
61
100
AcDbEntity
  8
Calque 4
 62
   250
420
  2301728
370
    35
100
AcDbVertex
100
AcDb2dVertex
 10
56.59671668634333
 20
-102.4905152382242
 30
0.0
  0
VERTEX
  5
6A
330
61
100
AcDbEntity
  8
Calque 4
 62
   250
420
  2301728
370
    35
100
AcDbVertex
100
AcDb2dVertex
 10
71.91482129554593
 20
-102.4886102382728
 30
0.0
  0
VERTEX
  5
6B
330
61
100
AcDbEntity
  8
Calque 4
 62
   250
420
  2301728
370
    35
100
AcDbVertex
100
AcDb2dVertex
 10
71.91482129554593
 20
-109.3012781200224
 30
0.0
  0
VERTEX
  5
6C
330
61
100
AcDbEntity
  8
Calque 4
 62
   250
420
  2301728
370
    35
100
AcDbVertex
100
AcDb2dVertex
 10
56.59671668634333
 20
-109.3112617308789
 30
0.0
  0
VERTEX
  5
6D
330
61
100
AcDbEntity
  8
Calque 4
 62
   250
420
  2301728
370
    35
100
AcDbVertex
100
AcDb2dVertex
 10
56.59671668634333
 20
-116.4309168270191
 30
0.0
  0
VERTEX
  5
6E
330
61
100
AcDbEntity
  8
Calque 4
 62
   250
420
  2301728
370
    35
100
AcDbVertex
100
AcDb2dVertex
 10
85.07353790428354
 20
-116.4309168270191
 30
0.0
  0
VERTEX
  5
6F
330
61
100
AcDbEntity
  8
Calque 4
 62
   250
420
  2301728
370
    35
100
AcDbVertex
100
AcDb2dVertex
 10
85.07353790428354
 20
-110.730310305787
 30
0.0
  0
VERTEX
  5
70
330
61
100
AcDbEntity
  8
Calque 4
 62
   250
420
  2301728
370
    35
100
AcDbVertex
100
AcDb2dVertex
 10
87.6156897838723
 20
-110.730310305787
 30
0.0
  0
VERTEX
  5
71
330
61
100
AcDbEntity
  8
Calque 4
 62
   250
420
  2301728
370
    35
100
AcDbVertex
100
AcDb2dVertex
 10
87.6156897838723
 20
-116.4309168270191
 30
0.0
  0
VERTEX
  5
72
330
61
100
AcDbEntity
  8
Calque 4
 62
   250
420
  2301728
370
    35
100
AcDbVertex
100
AcDb2dVertex
 10
134.854996634253
 20
-116.4309168270191
 30
0.0
  0
VERTEX
  5
73
330
61
100
AcDbEntity
  8
Calque 4
 62
   250
420
  2301728
370
    35
100
AcDbVertex
100
AcDb2dVertex
 10
134.854996634253
 20
-110.730310305787
 30
0.0
  0
VERTEX
  5
74
330
61
100
AcDbEntity
  8
Calque 4
 62
   250
420
  2301728
370
    35
100
AcDbVertex
100
AcDb2dVertex
 10
137.3971485138418
 20
-110.730310305787
 30
0.0
  0
VERTEX
  5
75
330
61
100
AcDbEntity
  8
Calque 4
 62
   250
420
  2301728
370
    35
100
AcDbVertex
100
AcDb2dVertex
 10
137.3971485138418
 20
-116.4309168270191
 30
0.0
  0
VERTEX
  5
76
330
61
100
AcDbEntity
  8
Calque 4
 62
   250
420
  2301728
370
    35
100
AcDbVertex
100
AcDb2dVertex
 10
161.6213395624979
 20
-116.4309168270191
 30
0.0
  0
VERTEX
  5
77
330
61
100
AcDbEntity
  8
Calque 4
 62
   250
420
  2301728
370
    35
100
AcDbVertex
100
AcDb2dVertex
 10
161.6395781731437
 20
-116.4309168270191
 30
0.0
  0
VERTEX
  5
78
330
61
100
AcDbEntity
  8
Calque 4
 62
   250
420
  2301728
370
    35
100
AcDbVertex
100
AcDb2dVertex
 10
161.6395781731437
 20
-109.3612150629378
 30
0.0
  0
VERTEX
  5
79
330
61
100
AcDbEntity
  8
Calque 4
 62
   250
420
  2301728
370
    35
100
AcDbVertex
100
AcDb2dVertex
 10
176.6209211242711
 20
-109.3612150629378
 30
0.0
  0
VERTEX
  5
7A
330
61
100
AcDbEntity
  8
Calque 4
 62
   250
420
  2301728
370
    35
100
AcDbVertex
100
AcDb2dVertex
 10
176.6209211242711
 20
-102.5490763478413
 30
0.0
  0
VERTEX
  5
7B
330
61
100
AcDbEntity
  8
Calque 4
 62
   250
420
  2301728
370
    35
100
AcDbVertex
100
AcDb2dVertex
 10
158.0897518748184
 20
-102.5626935697161
 30
0.0
  0
SEQEND
  5
7C
330
61
100
AcDbEntity
  8
Calque 4
 62
   250
420
  2301728
370
    35
  0
SPLINE
  5
7E
330
1F
100
AcDbEntity
  8
Calque 5
 62
   250
420
  2301728
370
    35
100
AcDbSpline
210
0.0
220
0.0
230
1.0
 70
    11
 71
     3
 72
   125
 73
   121
 74
     0
 42
0.0000000001
 43
0.0000000001
 12
1.0
 22
0.0
 32
0.0
 13
1.0
 23
0.0
 33
0.0
 40
0.0
 40
0.0
 40
0.0
 40
0.0
 40
1.0
 40
1.0
 40
1.0
 40
2.0
 40
2.0
 40
2.0
 40
3.0
 40
3.0
 40
3.0
 40
4.0
 40
4.0
 40
4.0
 40
5.0
 40
5.0
 40
5.0
 40
6.0
 40
6.0
 40
6.0
 40
7.0
 40
7.0
 40
7.0
 40
8.0
 40
8.0
 40
8.0
 40
9.0
 40
9.0
 40
9.0
 40
10.0
 40
10.0
 40
10.0
 40
11.0
 40
11.0
 40
11.0
 40
12.0
 40
12.0
 40
12.0
 40
13.0
 40
13.0
 40
13.0
 40
14.0
 40
14.0
 40
14.0
 40
15.0
 40
15.0
 40
15.0
 40
16.0
 40
16.0
 40
16.0
 40
17.0
 40
17.0
 40
17.0
 40
18.0
 40
18.0
 40
18.0
 40
19.0
 40
19.0
 40
19.0
 40
20.0
 40
20.0
 40
20.0
 40
21.0
 40
21.0
 40
21.0
 40
22.0
 40
22.0
 40
22.0
 40
23.0
 40
23.0
 40
23.0
 40
24.0
 40
24.0
 40
24.0
 40
25.0
 40
25.0
 40
25.0
 40
26.0
 40
26.0
 40
26.0
 40
27.0
 40
27.0
 40
27.0
 40
28.0
 40
28.0
 40
28.0
 40
29.0
 40
29.0
 40
29.0
 40
30.0
 40
30.0
 40
30.0
 40
31.0
 40
31.0
 40
31.0
 40
32.0
 40
32.0
 40
32.0
 40
33.0
 40
33.0
 40
33.0
 40
34.0
 40
34.0
 40
34.0
 40
35.0
 40
35.0
 40
35.0
 40
36.0
 40
36.0
 40
36.0
 40
37.0
 40
37.0
 40
37.0
 40
38.0
 40
38.0
 40
38.0
 40
39.0
 40
39.0
 40
39.0
 40
40.0
 40
40.0
 40
40.0
 40
40.0
 10
185.8570506080373
 20
-101.4928685461998
 30
0.0
 10
185.8570506080373
 20
-101.4928685461998
 30
0.0
 10
171.9919018997374
 20
-101.5020024586845
 30
0.0
 10
171.9919018997374
 20
-101.5020024586845
 30
0.0
 10
171.9919018997374
 20
-101.5020024586845
 30
0.0
 10
171.0004145981728
 20
-103.0902080138431
 30
0.0
 10
171.0004145981728
 20
-103.0902080138431
 30
0.0
 10
171.0004145981728
 20
-103.0902080138431
 30
0.0
 10
169.9899532350629
 20
-101.4589313248437
 30
0.0
 10
169.9899532350629
 20
-101.4589313248437
 30
0.0
 10
169.9899532350629
 20
-101.4589313248437
 30
0.0
 10
160.9644867986551
 20
-101.4613654914483
 30
0.0
 10
160.9644867986551
 20
-101.4613654914483
 30
0.0
 10
160.9644867986551
 20
-101.4613654914483
 30
0.0
 10
156.3680394159202
 20
-92.04745545383939
 30
0.0
 10
156.3680394159202
 20
-92.04745545383939
 30
0.0
 10
155.7362144320394
 20
-90.97430548121773
 30
0.0
 10
154.5321486294244
 20
-90.30804938710422
 30
0.0
 10
153.2251069961031
 20
-90.30804938710422
 30
0.0
 10
153.2251069961031
 20
-90.30804938710422
 30
0.0
 10
108.3864881400319
 20
-90.30804938710422
 30
0.0
 10
108.3864881400319
 20
-90.30804938710422
 30
0.0
 10
107.3195470561411
 20
-90.30804938710422
 30
0.0
 10
106.4033126350714
 20
-91.01995492449755
 30
0.0
 10
106.2040284734889
 20
-92.0030054549734
 30
0.0
 10
106.2040284734889
 20
-92.0030054549734
 30
0.0
 10
104.7693165656473
 20
-101.460307158142
 30
0.0
 10
104.7693165656473
 20
-101.460307158142
 30
0.0
 10
104.7693165656473
 20
-101.460307158142
 30
0.0
 10
101.264434155064
 20
-101.4613654914483
 30
0.0
 10
101.264434155064
 20
-101.4613654914483
 30
0.0
 10
101.264434155064
 20
-101.4613654914483
 30
0.0
 10
96.66798677232913
 20
-92.04745545383939
 30
0.0
 10
96.66798677232913
 20
-92.04745545383939
 30
0.0
 10
96.03580901067954
 20
-90.97430548121773
 30
0.0
 10
94.83209598583326
 20
-90.30804938710422
 30
0.0
 10
93.5248779636273
 20
-90.30804938710422
 30
0.0
 10
93.5248779636273
 20
-90.30804938710422
 30
0.0
 10
46.4364541649534
 20
-90.30804938710422
 30
0.0
 10
46.4364541649534
 20
-90.30804938710422
 30
0.0
 10
45.36916030329344
 20
-90.30804938710422
 30
0.0
 10
44.45310227110847
 20
-91.01995492449755
 30
0.0
 10
44.25378283174909
 20
-92.0030054549734
 30
0.0
 10
44.25378283174909
 20
-92.0030054549734
 30
0.0
 10
42.81014564635712
 20
-101.4225952146597
 30
0.0
 10
42.81014564635712
 20
-101.4225952146597
 30
0.0
 10
42.81014564635712
 20
-101.4225952146597
 30
0.0
 10
44.42519754959816
 20
-101.4225952146597
 30
0.0
 10
44.42519754959816
 20
-101.4225952146597
 30
0.0
 10
44.42519754959816
 20
-101.4225952146597
 30
0.0
 10
51.29247542995486
 20
-101.4219219031493
 30
0.0
 10
51.29247542995486
 20
-101.4219219031493
 30
0.0
 10
51.29247542995486
 20
-101.4219219031493
 30
0.0
 10
51.32175598476341
 20
-101.4219219031493
 30
0.0
 10
51.32175598476341
 20
-101.4219219031493
 30
0.0
 10
51.32175598476341
 20
-101.4219219031493
 30
0.0
 10
66.32430087979469
 20
-101.4205491036007
 30
0.0
 10
66.32430087979469
 20
-101.4205491036007
 30
0.0
 10
66.32430087979469
 20
-101.4205491036007
 30
0.0
 10
66.32430087979469
 20
-108.4323219013965
 30
0.0
 10
66.32430087979469
 20
-108.4323219013965
 30
0.0
 10
66.32430087979469
 20
-108.4323219013965
 30
0.0
 10
51.36310153926383
 20
-108.4323219013965
 30
0.0
 10
51.36310153926383
 20
-108.4323219013965
 30
0.0
 10
51.36310153926383
 20
-108.4323219013965
 30
0.0
 10
51.36310153926383
 20
-116.3079826126799
 30
0.0
 10
51.36310153926383
 20
-116.3079826126799
 30
0.0
 10
51.36310153926383
 20
-116.3079826126799
 30
0.0
 10
82.65110296326327
 20
-116.3079826126799
 30
0.0
 10
82.65110296326327
 20
-116.3079826126799
 30
0.0
 10
82.65110296326327
 20
-116.3079826126799
 30
0.0
 10
82.65110296326327
 20
-109.9743516631525
 30
0.0
 10
82.65110296326327
 20
-109.9743516631525
 30
0.0
 10
82.65110296326327
 20
-109.9743516631525
 30
0.0
 10
85.6085448322571
 20
-109.9743516631525
 30
0.0
 10
85.6085448322571
 20
-109.9743516631525
 30
0.0
 10
85.6085448322571
 20
-109.9743516631525
 30
0.0
 10
85.6085448322571
 20
-116.3079826126799
 30
0.0
 10
85.6085448322571
 20
-116.3079826126799
 30
0.0
 10
85.6085448322571
 20
-116.3079826126799
 30
0.0
 10
111.9135955500482
 20
-116.3079826126799
 30
0.0
 10
111.9135955500482
 20
-116.3079826126799
 30
0.0
 10
111.9135955500482
 20
-116.3079826126799
 30
0.0
 10
111.9135955500482
 20
-109.9743516631525
 30
0.0
 10
111.9135955500482
 20
-109.9743516631525
 30
0.0
 10
111.9135955500482
 20
-109.9743516631525
 30
0.0
 10
114.8708610301573
 20
-109.9743516631525
 30
0.0
 10
114.8708610301573
 20
-109.9743516631525
 30
0.0
 10
114.8708610301573
 20
-109.9743516631525
 30
0.0
 10
114.8708610301573
 20
-116.3079826126799
 30
0.0
 10
114.8708610301573
 20
-116.3079826126799
 30
0.0
 10
114.8708610301573
 20
-116.3079826126799
 30
0.0
 10
141.5665425713157
 20
-116.3079826126799
 30
0.0
 10
141.5665425713157
 20
-116.3079826126799
 30
0.0
 10
141.5665425713157
 20
-116.3079826126799
 30
0.0
 10
141.5665425713157
 20
-109.9743516631525
 30
0.0
 10
141.5665425713157
 20
-109.9743516631525
 30
0.0
 10
141.5665425713157
 20
-109.9743516631525
 30
0.0
 10
144.5238080514251
 20
-109.9743516631525
 30
0.0
 10
144.5238080514251
 20
-109.9743516631525
 30
0.0
 10
144.5238080514251
 20
-109.9743516631525
 30
0.0
 10
144.5238080514251
 20
-116.3079826126799
 30
0.0
 10
144.5238080514251
 20
-116.3079826126799
 30
0.0
 10
144.5238080514251
 20
-116.3079826126799
 30
0.0
 10
173.3051823171511
 20
-116.3079826126799
 30
0.0
 10
173.3051823171511
 20
-116.3079826126799
 30
0.0
 10
173.3051823171511
 20
-116.3079826126799
 30
0.0
 10
173.3051823171511
 20
-108.4485172576357
 30
0.0
 10
173.3051823171511
 20
-108.4485172576357
 30
0.0
 10
173.3051823171511
 20
-108.4485172576357
 30
0.0
 10
183.6432289978499
 20
-108.4344061468846
 30
0.0
 10
183.6432289978499
 20
-108.4344061468846
 30
0.0
 10
183.6432289978499
 20
-108.4344061468846
 30
0.0
 10
187.96369833207
 20
-107.1061625696598
 30
0.0
 10
187.96369833207
 20
-107.1061625696598
 30
0.0
 10
187.96369833207
 20
-107.1061625696598
 30
0.0
 10
187.96369833207
 20
-102.655938569507
 30
0.0
 10
187.96369833207
 20
-102.655938569507
 30
0.0
 10
187.96369833207
 20
-102.655938569507
 30
0.0
 10
185.8570506080373
 20
-101.4928685461998
 30
0.0
 10
185.8570506080373
 20
-101.4928685461998
 30
0.0
  0
SPLINE
  5
80
330
1F
100
AcDbEntity
  8
Calque 6
 62
   250
420
  2301728
370
    35
100
AcDbSpline
210
0.0
220
0.0
230
1.0
 70
    11
 71
     3
 72
   107
 73
   103
 74
     0
 42
0.0000000001
 43
0.0000000001
 12
1.0
 22
0.0
 32
0.0
 13
1.0
 23
0.0
 33
0.0
 40
0.0
 40
0.0
 40
0.0
 40
0.0
 40
1.0
 40
1.0
 40
1.0
 40
2.0
 40
2.0
 40
2.0
 40
3.0
 40
3.0
 40
3.0
 40
4.0
 40
4.0
 40
4.0
 40
5.0
 40
5.0
 40
5.0
 40
6.0
 40
6.0
 40
6.0
 40
7.0
 40
7.0
 40
7.0
 40
8.0
 40
8.0
 40
8.0
 40
9.0
 40
9.0
 40
9.0
 40
10.0
 40
10.0
 40
10.0
 40
11.0
 40
11.0
 40
11.0
 40
12.0
 40
12.0
 40
12.0
 40
13.0
 40
13.0
 40
13.0
 40
14.0
 40
14.0
 40
14.0
 40
15.0
 40
15.0
 40
15.0
 40
16.0
 40
16.0
 40
16.0
 40
17.0
 40
17.0
 40
17.0
 40
18.0
 40
18.0
 40
18.0
 40
19.0
 40
19.0
 40
19.0
 40
20.0
 40
20.0
 40
20.0
 40
21.0
 40
21.0
 40
21.0
 40
22.0
 40
22.0
 40
22.0
 40
23.0
 40
23.0
 40
23.0
 40
24.0
 40
24.0
 40
24.0
 40
25.0
 40
25.0
 40
25.0
 40
26.0
 40
26.0
 40
26.0
 40
27.0
 40
27.0
 40
27.0
 40
28.0
 40
28.0
 40
28.0
 40
29.0
 40
29.0
 40
29.0
 40
30.0
 40
30.0
 40
30.0
 40
31.0
 40
31.0
 40
31.0
 40
32.0
 40
32.0
 40
32.0
 40
33.0
 40
33.0
 40
33.0
 40
34.0
 40
34.0
 40
34.0
 40
34.0
 10
184.4481642559092
 20
-104.3169285676383
 30
0.0
 10
184.4481642559092
 20
-104.3169285676383
 30
0.0
 10
173.0989802452132
 20
-104.3169285676383
 30
0.0
 10
173.0989802452132
 20
-104.3169285676383
 30
0.0
 10
173.0989802452132
 20
-104.3169285676383
 30
0.0
 10
171.9934805511946
 20
-105.3122154761246
 30
0.0
 10
171.9934805511946
 20
-105.3122154761246
 30
0.0
 10
171.9934805511946
 20
-105.3122154761246
 30
0.0
 10
170.9582189109397
 20
-104.3169285676383
 30
0.0
 10
170.9582189109397
 20
-104.3169285676383
 30
0.0
 10
170.9582189109397
 20
-104.3169285676383
 30
0.0
 10
159.7709655852392
 20
-104.3169285676383
 30
0.0
 10
159.7709655852392
 20
-104.3169285676383
 30
0.0
 10
158.4742250627662
 20
-104.3169285676383
 30
0.0
 10
157.3228642588066
 20
-103.2177893335307
 30
0.0
 10
156.9122309359494
 20
-101.9582224716421
 30
0.0
 10
156.9122309359494
 20
-101.9582224716421
 30
0.0
 10
155.3164406988836
 20
-98.53316821268307
 30
0.0
 10
155.3164406988836
 20
-98.53316821268307
 30
0.0
 10
154.8751157101427
 20
-97.17828256156828
 30
0.0
 10
153.636618797295
 20
-96.26500713383214
 30
0.0
 10
152.24205299954
 20
-96.26500713383214
 30
0.0
 10
152.24205299954
 20
-96.26500713383214
 30
0.0
 10
56.1478253990952
 20
-96.26500713383214
 30
0.0
 10
56.1478253990952
 20
-96.26500713383214
 30
0.0
 10
56.1478253990952
 20
-96.26500713383214
 30
0.0
 10
44.33682540204811
 20
-96.26500713383214
 30
0.0
 10
44.33682540204811
 20
-96.26500713383214
 30
0.0
 10
42.88870578937563
 20
-96.26500713383214
 30
0.0
 10
41.92287081401646
 20
-97.79445905745003
 30
0.0
 10
42.51680746553054
 20
-99.14672409510018
 30
0.0
 10
42.51680746553054
 20
-99.14672409510018
 30
0.0
 10
43.79922521059112
 20
-102.3999919939527
 30
0.0
 10
43.79922521059112
 20
-102.3999919939527
 30
0.0
 10
44.24520686587984
 20
-103.4146337701594
 30
0.0
 10
45.23047989629899
 20
-103.9668435662811
 30
0.0
 10
46.31671792414262
 20
-103.9668435662811
 30
0.0
 10
46.31671792414262
 20
-103.9668435662811
 30
0.0
 10
66.39492352301572
 20
-103.9668435662811
 30
0.0
 10
66.39492352301572
 20
-103.9668435662811
 30
0.0
 10
66.39492352301572
 20
-103.9668435662811
 30
0.0
 10
66.39492352301572
 20
-110.4061229674437
 30
0.0
 10
66.39492352301572
 20
-110.4061229674437
 30
0.0
 10
66.39492352301572
 20
-110.4061229674437
 30
0.0
 10
54.23322744439754
 20
-110.4061229674437
 30
0.0
 10
54.23322744439754
 20
-110.4061229674437
 30
0.0
 10
54.23322744439754
 20
-110.4061229674437
 30
0.0
 10
54.23322744439754
 20
-116.2650071288327
 30
0.0
 10
54.23322744439754
 20
-116.2650071288327
 30
0.0
 10
54.23322744439754
 20
-116.2650071288327
 30
0.0
 10
83.55269364084009
 20
-116.2650071288327
 30
0.0
 10
83.55269364084009
 20
-116.2650071288327
 30
0.0
 10
83.55269364084009
 20
-116.2650071288327
 30
0.0
 10
83.55269364084009
 20
-109.5985084508771
 30
0.0
 10
83.55269364084009
 20
-109.5985084508771
 30
0.0
 10
83.55269364084009
 20
-109.5985084508771
 30
0.0
 10
86.48293634386114
 20
-109.5985084508771
 30
0.0
 10
86.48293634386114
 20
-109.5985084508771
 30
0.0
 10
86.48293634386114
 20
-109.5985084508771
 30
0.0
 10
86.48293634386114
 20
-116.2650071288327
 30
0.0
 10
86.48293634386114
 20
-116.2650071288327
 30
0.0
 10
86.48293634386114
 20
-116.2650071288327
 30
0.0
 10
110.398940733713
 20
-116.2650071288327
 30
0.0
 10
110.398940733713
 20
-116.2650071288327
 30
0.0
 10
110.398940733713
 20
-116.2650071288327
 30
0.0
 10
110.398940733713
 20
-109.5985084508771
 30
0.0
 10
110.398940733713
 20
-109.5985084508771
 30
0.0
 10
110.398940733713
 20
-109.5985084508771
 30
0.0
 10
113.3290070478497
 20
-109.5985084508771
 30
0.0
 10
113.3290070478497
 20
-109.5985084508771
 30
0.0
 10
113.3290070478497
 20
-109.5985084508771
 30
0.0
 10
113.3290070478497
 20
-116.2650071288327
 30
0.0
 10
113.3290070478497
 20
-116.2650071288327
 30
0.0
 10
113.3290070478497
 20
-116.2650071288327
 30
0.0
 10
137.266918937143
 20
-116.2650071288327
 30
0.0
 10
137.266918937143
 20
-116.2650071288327
 30
0.0
 10
137.266918937143
 20
-116.2650071288327
 30
0.0
 10
137.266918937143
 20
-109.5985084508771
 30
0.0
 10
137.266918937143
 20
-109.5985084508771
 30
0.0
 10
137.266918937143
 20
-109.5985084508771
 30
0.0
 10
140.1973027512716
 20
-109.5985084508771
 30
0.0
 10
140.1973027512716
 20
-109.5985084508771
 30
0.0
 10
140.1973027512716
 20
-109.5985084508771
 30
0.0
 10
140.1973027512716
 20
-116.2650071288327
 30
0.0
 10
140.1973027512716
 20
-116.2650071288327
 30
0.0
 10
140.1973027512716
 20
-116.2650071288327
 30
0.0
 10
176.1296642579882
 20
-116.2650071288327
 30
0.0
 10
176.1296642579882
 20
-116.2650071288327
 30
0.0
 10
176.1296642579882
 20
-116.2650071288327
 30
0.0
 10
176.1296642579882
 20
-109.5981724767876
 30
0.0
 10
176.1296642579882
 20
-109.5981724767876
 30
0.0
 10
176.1296642579882
 20
-109.5981724767876
 30
0.0
 10
183.4900847023363
 20
-109.5981724767876
 30
0.0
 10
183.4900847023363
 20
-109.5981724767876
 30
0.0
 10
183.4900847023363
 20
-109.5981724767876
 30
0.0
 10
187.1532642552322
 20
-108.187014105674
 30
0.0
 10
187.1532642552322
 20
-108.187014105674
 30
0.0
 10
187.1532642552322
 20
-108.187014105674
 30
0.0
 10
187.1532642552322
 20
-105.21542407544
 30
0.0
 10
187.1532642552322
 20
-105.21542407544
 30
0.0
 10
187.1532642552322
 20
-105.21542407544
 30
0.0
 10
184.4481642559092
 20
-104.3169285676383
 30
0.0
 10
184.4481642559092
 20
-104.3169285676383
 30
0.0
  0
SPLINE
  5
82
330
1F
100
AcDbEntity
  8
Calque 7
 62
   250
420
  2301728
370
    35
100
AcDbSpline
210
0.0
220
0.0
230
1.0
 70
    11
 71
     3
 72
   107
 73
   103
 74
     0
 42
0.0000000001
 43
0.0000000001
 12
1.0
 22
0.0
 32
0.0
 13
1.0
 23
0.0
 33
0.0
 40
0.0
 40
0.0
 40
0.0
 40
0.0
 40
1.0
 40
1.0
 40
1.0
 40
2.0
 40
2.0
 40
2.0
 40
3.0
 40
3.0
 40
3.0
 40
4.0
 40
4.0
 40
4.0
 40
5.0
 40
5.0
 40
5.0
 40
6.0
 40
6.0
 40
6.0
 40
7.0
 40
7.0
 40
7.0
 40
8.0
 40
8.0
 40
8.0
 40
9.0
 40
9.0
 40
9.0
 40
10.0
 40
10.0
 40
10.0
 40
11.0
 40
11.0
 40
11.0
 40
12.0
 40
12.0
 40
12.0
 40
13.0
 40
13.0
 40
13.0
 40
14.0
 40
14.0
 40
14.0
 40
15.0
 40
15.0
 40
15.0
 40
16.0
 40
16.0
 40
16.0
 40
17.0
 40
17.0
 40
17.0
 40
18.0
 40
18.0
 40
18.0
 40
19.0
 40
19.0
 40
19.0
 40
20.0
 40
20.0
 40
20.0
 40
21.0
 40
21.0
 40
21.0
 40
22.0
 40
22.0
 40
22.0
 40
23.0
 40
23.0
 40
23.0
 40
24.0
 40
24.0
 40
24.0
 40
25.0
 40
25.0
 40
25.0
 40
26.0
 40
26.0
 40
26.0
 40
27.0
 40
27.0
 40
27.0
 40
28.0
 40
28.0
 40
28.0
 40
29.0
 40
29.0
 40
29.0
 40
30.0
 40
30.0
 40
30.0
 40
31.0
 40
31.0
 40
31.0
 40
32.0
 40
32.0
 40
32.0
 40
33.0
 40
33.0
 40
33.0
 40
34.0
 40
34.0
 40
34.0
 40
34.0
 10
184.4481642559092
 20
-103.719347282232
 30
0.0
 10
184.4481642559092
 20
-103.719347282232
 30
0.0
 10
173.0989802452132
 20
-103.719347282232
 30
0.0
 10
173.0989802452132
 20
-103.719347282232
 30
0.0
 10
173.0989802452132
 20
-103.719347282232
 30
0.0
 10
171.9934805511946
 20
-104.7644132731644
 30
0.0
 10
171.9934805511946
 20
-104.7644132731644
 30
0.0
 10
171.9934805511946
 20
-104.7644132731644
 30
0.0
 10
170.9582189109397
 20
-103.719347282232
 30
0.0
 10
170.9582189109397
 20
-103.719347282232
 30
0.0
 10
170.9582189109397
 20
-103.719347282232
 30
0.0
 10
159.7709655852392
 20
-103.719347282232
 30
0.0
 10
159.7709655852392
 20
-103.719347282232
 30
0.0
 10
158.4742250627662
 20
-103.719347282232
 30
0.0
 10
157.3228642588066
 20
-102.5652348116759
 30
0.0
 10
156.9122309359494
 20
-101.2426709565284
 30
0.0
 10
156.9122309359494
 20
-101.2426709565284
 30
0.0
 10
155.3164406988836
 20
-97.64631327050137
 30
0.0
 10
155.3164406988836
 20
-97.64631327050137
 30
0.0
 10
154.8751157101427
 20
-96.22366327529961
 30
0.0
 10
153.636618797295
 20
-95.26471055348333
 30
0.0
 10
152.24205299954
 20
-95.26471055348333
 30
0.0
 10
152.24205299954
 20
-95.26471055348333
 30
0.0
 10
56.1478253990952
 20
-95.26471055348333
 30
0.0
 10
56.1478253990952
 20
-95.26471055348333
 30
0.0
 10
56.1478253990952
 20
-95.26471055348333
 30
0.0
 10
44.33682540204811
 20
-95.26471055348333
 30
0.0
 10
44.33682540204811
 20
-95.26471055348333
 30
0.0
 10
42.88870578937563
 20
-95.26471055348333
 30
0.0
 10
41.92287081401646
 20
-96.87065771958225
 30
0.0
 10
42.51680746553054
 20
-98.29055603184347
 30
0.0
 10
42.51680746553054
 20
-98.29055603184347
 30
0.0
 10
43.79922521059112
 20
-101.7065354961509
 30
0.0
 10
43.79922521059112
 20
-101.7065354961509
 30
0.0
 10
44.24520686587984
 20
-102.7719243847736
 30
0.0
 10
45.23047989629899
 20
-103.3517528471657
 30
0.0
 10
46.31671792414262
 20
-103.3517528471657
 30
0.0
 10
46.31671792414262
 20
-103.3517528471657
 30
0.0
 10
66.39492352301572
 20
-103.3517528471657
 30
0.0
 10
66.39492352301572
 20
-103.3517528471657
 30
0.0
 10
66.39492352301572
 20
-103.3517528471657
 30
0.0
 10
66.39492352301572
 20
-110.1130915635588
 30
0.0
 10
66.39492352301572
 20
-110.1130915635588
 30
0.0
 10
66.39492352301572
 20
-110.1130915635588
 30
0.0
 10
54.23322744439754
 20
-110.1130915635588
 30
0.0
 10
54.23322744439754
 20
-110.1130915635588
 30
0.0
 10
54.23322744439754
 20
-110.1130915635588
 30
0.0
 10
54.23322744439754
 20
-116.2650066843881
 30
0.0
 10
54.23322744439754
 20
-116.2650066843881
 30
0.0
 10
54.23322744439754
 20
-116.2650066843881
 30
0.0
 10
83.55269364084009
 20
-116.2650066843881
 30
0.0
 10
83.55269364084009
 20
-116.2650066843881
 30
0.0
 10
83.55269364084009
 20
-116.2650066843881
 30
0.0
 10
83.55269364084009
 20
-109.2650843629707
 30
0.0
 10
83.55269364084009
 20
-109.2650843629707
 30
0.0
 10
83.55269364084009
 20
-109.2650843629707
 30
0.0
 10
86.48293634386114
 20
-109.2650843629707
 30
0.0
 10
86.48293634386114
 20
-109.2650843629707
 30
0.0
 10
86.48293634386114
 20
-109.2650843629707
 30
0.0
 10
86.48293634386114
 20
-116.2650066843881
 30
0.0
 10
86.48293634386114
 20
-116.2650066843881
 30
0.0
 10
86.48293634386114
 20
-116.2650066843881
 30
0.0
 10
110.398940733713
 20
-116.2650066843881
 30
0.0
 10
110.398940733713
 20
-116.2650066843881
 30
0.0
 10
110.398940733713
 20
-116.2650066843881
 30
0.0
 10
110.398940733713
 20
-109.2650843629707
 30
0.0
 10
110.398940733713
 20
-109.2650843629707
 30
0.0
 10
110.398940733713
 20
-109.2650843629707
 30
0.0
 10
113.3290070478497
 20
-109.2650843629707
 30
0.0
 10
113.3290070478497
 20
-109.2650843629707
 30
0.0
 10
113.3290070478497
 20
-109.2650843629707
 30
0.0
 10
113.3290070478497
 20
-116.2650066843881
 30
0.0
 10
113.3290070478497
 20
-116.2650066843881
 30
0.0
 10
113.3290070478497
 20
-116.2650066843881
 30
0.0
 10
137.266918937143
 20
-116.2650066843881
 30
0.0
 10
137.266918937143
 20
-116.2650066843881
 30
0.0
 10
137.266918937143
 20
-116.2650066843881
 30
0.0
 10
137.266918937143
 20
-109.2650843629707
 30
0.0
 10
137.266918937143
 20
-109.2650843629707
 30
0.0
 10
137.266918937143
 20
-109.2650843629707
 30
0.0
 10
140.1973027512716
 20
-109.2650843629707
 30
0.0
 10
140.1973027512716
 20
-109.2650843629707
 30
0.0
 10
140.1973027512716
 20
-109.2650843629707
 30
0.0
 10
140.1973027512716
 20
-116.2650066843881
 30
0.0
 10
140.1973027512716
 20
-116.2650066843881
 30
0.0
 10
140.1973027512716
 20
-116.2650066843881
 30
0.0
 10
176.1296642579882
 20
-116.2650066843881
 30
0.0
 10
176.1296642579882
 20
-116.2650066843881
 30
0.0
 10
176.1296642579882
 20
-116.2650066843881
 30
0.0
 10
176.1296642579882
 20
-109.2647315852019
 30
0.0
 10
176.1296642579882
 20
-109.2647315852019
 30
0.0
 10
176.1296642579882
 20
-109.2647315852019
 30
0.0
 10
183.4900847023363
 20
-109.2647315852019
 30
0.0
 10
183.4900847023363
 20
-109.2647315852019
 30
0.0
 10
183.4900847023363
 20
-109.2647315852019
 30
0.0
 10
187.1532642552322
 20
-107.782994400782
 30
0.0
 10
187.1532642552322
 20
-107.782994400782
 30
0.0
 10
187.1532642552322
 20
-107.782994400782
 30
0.0
 10
187.1532642552322
 20
-104.6627808692741
 30
0.0
 10
187.1532642552322
 20
-104.6627808692741
 30
0.0
 10
187.1532642552322
 20
-104.6627808692741
 30
0.0
 10
184.4481642559092
 20
-103.719347282232
 30
0.0
 10
184.4481642559092
 20
-103.719347282232
 30
0.0
  0
POLYLINE
  5
84
330
1F
100
AcDbEntity
  8
Calque 8
 62
   250
420
  2301728
370
    35
100
AcDb2dPolyline
 66
     1
 10
0.0
 20
0.0
 30
0.0
  0
VERTEX
  5
85
330
84
100
AcDbEntity
  8
Calque 8
 62
   250
420
  2301728
370
    35
100
AcDbVertex
100
AcDb2dVertex
 10
132.3549424571749
 20
-116.4019675634923
 30
0.0
  0
VERTEX
  5
86
330
84
100
AcDbEntity
  8
Calque 8
 62
   250
420
  2301728
370
    35
100
AcDbVertex
100
AcDb2dVertex
 10
98.1626980517133
 20
-116.4019675634923
 30
0.0
  0
VERTEX
  5
87
330
84
100
AcDbEntity
  8
Calque 8
 62
   250
420
  2301728
370
    35
100
AcDbVertex
100
AcDb2dVertex
 10
95.32671756850996
 20
-113.5663045802806
 30
0.0
  0
VERTEX
  5
88
330
84
100
AcDbEntity
  8
Calque 8
 62
   250
420
  2301728
370
    35
100
AcDbVertex
100
AcDb2dVertex
 10
95.32671756850996
 20
-79.37373943125596
 30
0.0
  0
VERTEX
  5
89
330
84
100
AcDbEntity
  8
Calque 8
 62
   250
420
  2301728
370
    35
100
AcDbVertex
100
AcDb2dVertex
 10
98.1626980517133
 20
-76.53825608050064
 30
0.0
  0
VERTEX
  5
8A
330
84
100
AcDbEntity
  8
Calque 8
 62
   250
420
  2301728
370
    35
100
AcDbVertex
100
AcDb2dVertex
 10
132.3549424571749
 20
-76.53825608050064
 30
0.0
  0
VERTEX
  5
8B
330
84
100
AcDbEntity
  8
Calque 8
 62
   250
420
  2301728
370
    35
100
AcDbVertex
100
AcDb2dVertex
 10
135.1906054403867
 20
-79.37373943125596
 30
0.0
  0
VERTEX
  5
8C
330
84
100
AcDbEntity
  8
Calque 8
 62
   250
420
  2301728
370
    35
100
AcDbVertex
100
AcDb2dVertex
 10
135.1906054403867
 20
-113.5663045802806
 30
0.0
  0
VERTEX
  5
8D
330
84
100
AcDbEntity
  8
Calque 8
 62
   250
420
  2301728
370
    35
100
AcDbVertex
100
AcDb2dVertex
 10
132.3549424571749
 20
-116.4019675634923
 30
0.0
  0
SEQEND
  5
8E
330
84
100
AcDbEntity
  8
Calque 8
 62
   250
420
  2301728
370
    35
  0
INSERT
  5
92
330
1F
100
AcDbEntity
  8
Calque 10
100
AcDbBlockReference
  2
block 2
 10
0.0
 20
0.0
 30
0.0
  0
INSERT
  5
A2
330
1F
100
AcDbEntity
  8
Calque 11
100
AcDbBlockReference
  2
block 3
 10
0.0
 20
0.0
 30
0.0
  0
SPLINE
  5
B1
330
1F
100
AcDbEntity
  8
Calque 12
 62
   250
420
  2301728
370
    35
100
AcDbSpline
210
0.0
220
0.0
230
1.0
 70
    11
 71
     3
 72
    92
 73
    88
 74
     0
 42
0.0000000001
 43
0.0000000001
 12
1.0
 22
0.0
 32
0.0
 13
1.0
 23
0.0
 33
0.0
 40
0.0
 40
0.0
 40
0.0
 40
0.0
 40
1.0
 40
1.0
 40
1.0
 40
2.0
 40
2.0
 40
2.0
 40
3.0
 40
3.0
 40
3.0
 40
4.0
 40
4.0
 40
4.0
 40
5.0
 40
5.0
 40
5.0
 40
6.0
 40
6.0
 40
6.0
 40
7.0
 40
7.0
 40
7.0
 40
8.0
 40
8.0
 40
8.0
 40
9.0
 40
9.0
 40
9.0
 40
10.0
 40
10.0
 40
10.0
 40
11.0
 40
11.0
 40
11.0
 40
12.0
 40
12.0
 40
12.0
 40
13.0
 40
13.0
 40
13.0
 40
14.0
 40
14.0
 40
14.0
 40
15.0
 40
15.0
 40
15.0
 40
16.0
 40
16.0
 40
16.0
 40
17.0
 40
17.0
 40
17.0
 40
18.0
 40
18.0
 40
18.0
 40
19.0
 40
19.0
 40
19.0
 40
20.0
 40
20.0
 40
20.0
 40
21.0
 40
21.0
 40
21.0
 40
22.0
 40
22.0
 40
22.0
 40
23.0
 40
23.0
 40
23.0
 40
24.0
 40
24.0
 40
24.0
 40
25.0
 40
25.0
 40
25.0
 40
26.0
 40
26.0
 40
26.0
 40
27.0
 40
27.0
 40
27.0
 40
28.0
 40
28.0
 40
28.0
 40
29.0
 40
29.0
 40
29.0
 40
29.0
 10
187.7014300199064
 20
-104.3151901515954
 30
0.0
 10
187.7014300199064
 20
-104.3151901515954
 30
0.0
 10
175.5939615857298
 20
-104.3151901515954
 30
0.0
 10
175.5939615857298
 20
-104.3151901515954
 30
0.0
 10
175.5939615857298
 20
-104.3151901515954
 30
0.0
 10
162.7106881574733
 20
-104.3151901515954
 30
0.0
 10
162.7106881574733
 20
-104.3151901515954
 30
0.0
 10
162.7106881574733
 20
-104.3151901515954
 30
0.0
 10
155.5456004796314
 20
-98.31521641577864
 30
0.0
 10
155.5456004796314
 20
-98.31521641577864
 30
0.0
 10
155.5456004796314
 20
-98.31521641577864
 30
0.0
 10
57.59324945035338
 20
-98.31521641577864
 30
0.0
 10
57.59324945035338
 20
-98.31521641577864
 30
0.0
 10
57.59324945035338
 20
-98.31521641577864
 30
0.0
 10
49.71191439497834
 20
-98.31521641577864
 30
0.0
 10
49.71191439497834
 20
-98.31521641577864
 30
0.0
 10
49.71191439497834
 20
-98.31521641577864
 30
0.0
 10
43.77497952510936
 20
-103.2958035109355
 30
0.0
 10
43.77497952510936
 20
-103.2958035109355
 30
0.0
 10
43.39394425705292
 20
-103.6665023903671
 30
0.0
 10
43.65852758363585
 20
-104.3151901515954
 30
0.0
 10
44.19132784782077
 20
-104.3151901515954
 30
0.0
 10
44.19132784782077
 20
-104.3151901515954
 30
0.0
 10
57.59324945035338
 20
-104.3151901515954
 30
0.0
 10
57.59324945035338
 20
-104.3151901515954
 30
0.0
 10
57.59324945035338
 20
-104.3151901515954
 30
0.0
 10
57.59324945035338
 20
-110.3153755540735
 30
0.0
 10
57.59324945035338
 20
-110.3153755540735
 30
0.0
 10
57.59324945035338
 20
-110.3153755540735
 30
0.0
 10
43.59513341858683
 20
-110.3153755540735
 30
0.0
 10
43.59513341858683
 20
-110.3153755540735
 30
0.0
 10
43.59513341858683
 20
-110.3153755540735
 30
0.0
 10
43.59513341858683
 20
-116.3153492898906
 30
0.0
 10
43.59513341858683
 20
-116.3153492898906
 30
0.0
 10
43.59513341858683
 20
-116.3153492898906
 30
0.0
 10
80.59408105392478
 20
-116.3153492898906
 30
0.0
 10
80.59408105392478
 20
-116.3153492898906
 30
0.0
 10
80.59408105392478
 20
-116.3153492898906
 30
0.0
 10
80.59408105392478
 20
-110.3160430277355
 30
0.0
 10
80.59408105392478
 20
-110.3160430277355
 30
0.0
 10
80.59408105392478
 20
-110.3160430277355
 30
0.0
 10
83.59406462035066
 20
-110.3160430277355
 30
0.0
 10
83.59406462035066
 20
-110.3160430277355
 30
0.0
 10
83.59406462035066
 20
-110.3160430277355
 30
0.0
 10
83.59406462035066
 20
-116.3153492898906
 30
0.0
 10
83.59406462035066
 20
-116.3153492898906
 30
0.0
 10
83.59406462035066
 20
-116.3153492898906
 30
0.0
 10
108.08283899559
 20
-116.3153492898906
 30
0.0
 10
108.08283899559
 20
-116.3153492898906
 30
0.0
 10
108.08283899559
 20
-116.3153492898906
 30
0.0
 10
108.08283899559
 20
-110.3160430277355
 30
0.0
 10
108.08283899559
 20
-110.3160430277355
 30
0.0
 10
108.08283899559
 20
-110.3160430277355
 30
0.0
 10
111.0828258634984
 20
-110.3160430277355
 30
0.0
 10
111.0828258634984
 20
-110.3160430277355
 30
0.0
 10
111.0828258634984
 20
-110.3160430277355
 30
0.0
 10
111.0828258634984
 20
-116.3153492898906
 30
0.0
 10
111.0828258634984
 20
-116.3153492898906
 30
0.0
 10
111.0828258634984
 20
-116.3153492898906
 30
0.0
 10
135.5936488492866
 20
-116.3153492898906
 30
0.0
 10
135.5936488492866
 20
-116.3153492898906
 30
0.0
 10
135.5936488492866
 20
-116.3153492898906
 30
0.0
 10
135.5936488492866
 20
-110.3160430277355
 30
0.0
 10
135.5936488492866
 20
-110.3160430277355
 30
0.0
 10
135.5936488492866
 20
-110.3160430277355
 30
0.0
 10
138.5939884949638
 20
-110.3160430277355
 30
0.0
 10
138.5939884949638
 20
-110.3160430277355
 30
0.0
 10
138.5939884949638
 20
-110.3160430277355
 30
0.0
 10
138.5939884949638
 20
-116.3153492898906
 30
0.0
 10
138.5939884949638
 20
-116.3153492898906
 30
0.0
 10
138.5939884949638
 20
-116.3153492898906
 30
0.0
 10
175.5939615857298
 20
-116.3153492898906
 30
0.0
 10
175.5939615857298
 20
-116.3153492898906
 30
0.0
 10
175.5939615857298
 20
-116.3153492898906
 30
0.0
 10
175.5939615857298
 20
-110.3153755540735
 30
0.0
 10
175.5939615857298
 20
-110.3153755540735
 30
0.0
 10
175.5939615857298
 20
-110.3153755540735
 30
0.0
 10
187.4685261369594
 20
-110.3153755540735
 30
0.0
 10
187.4685261369594
 20
-110.3153755540735
 30
0.0
 10
188.1668497302547
 20
-110.3153755540735
 30
0.0
 10
188.7383849934514
 20
-109.7474386241183
 30
0.0
 10
188.7383849934514
 20
-109.0456578086889
 30
0.0
 10
188.7383849934514
 20
-109.0456578086889
 30
0.0
 10
188.7383849934514
 20
-105.3488995696681
 30
0.0
 10
188.7383849934514
 20
-105.3488995696681
 30
0.0
 10
188.7383849934514
 20
-104.7773643064711
 30
0.0
 10
188.2726125053343
 20
-104.3151901515954
 30
0.0
 10
187.7014300199064
 20
-104.3151901515954
 30
0.0
  0
INSERT
  5
B4
330
1F
100
AcDbEntity
  8
Calque 13
100
AcDbBlockReference
  2
block 4
 10
0.0
 20
0.0
 30
0.0
  0
SPLINE
  5
B9
330
1F
100
AcDbEntity
  8
Calque 14
 62
   250
420
  2301728
370
    35
100
AcDbSpline
210
0.0
220
0.0
230
1.0
 70
    11
 71
     3
 72
    92
 73
    88
 74
     0
 42
0.0000000001
 43
0.0000000001
 12
1.0
 22
0.0
 32
0.0
 13
1.0
 23
0.0
 33
0.0
 40
0.0
 40
0.0
 40
0.0
 40
0.0
 40
1.0
 40
1.0
 40
1.0
 40
2.0
 40
2.0
 40
2.0
 40
3.0
 40
3.0
 40
3.0
 40
4.0
 40
4.0
 40
4.0
 40
5.0
 40
5.0
 40
5.0
 40
6.0
 40
6.0
 40
6.0
 40
7.0
 40
7.0
 40
7.0
 40
8.0
 40
8.0
 40
8.0
 40
9.0
 40
9.0
 40
9.0
 40
10.0
 40
10.0
 40
10.0
 40
11.0
 40
11.0
 40
11.0
 40
12.0
 40
12.0
 40
12.0
 40
13.0
 40
13.0
 40
13.0
 40
14.0
 40
14.0
 40
14.0
 40
15.0
 40
15.0
 40
15.0
 40
16.0
 40
16.0
 40
16.0
 40
17.0
 40
17.0
 40
17.0
 40
18.0
 40
18.0
 40
18.0
 40
19.0
 40
19.0
 40
19.0
 40
20.0
 40
20.0
 40
20.0
 40
21.0
 40
21.0
 40
21.0
 40
22.0
 40
22.0
 40
22.0
 40
23.0
 40
23.0
 40
23.0
 40
24.0
 40
24.0
 40
24.0
 40
25.0
 40
25.0
 40
25.0
 40
26.0
 40
26.0
 40
26.0
 40
27.0
 40
27.0
 40
27.0
 40
28.0
 40
28.0
 40
28.0
 40
29.0
 40
29.0
 40
29.0
 40
29.0
 10
188.0969282342051
 20
-102.6968420676504
 30
0.0
 10
188.0969282342051
 20
-102.6968420676504
 30
0.0
 10
175.1323452316258
 20
-102.6968420676504
 30
0.0
 10
175.1323452316258
 20
-102.6968420676504
 30
0.0
 10
175.1323452316258
 20
-102.6968420676504
 30
0.0
 10
162.2494302825186
 20
-102.6968420676504
 30
0.0
 10
162.2494302825186
 20
-102.6968420676504
 30
0.0
 10
162.2494302825186
 20
-102.6968420676504
 30
0.0
 10
155.083984631991
 20
-96.03043584883575
 30
0.0
 10
155.083984631991
 20
-96.03043584883575
 30
0.0
 10
155.083984631991
 20
-96.03043584883575
 30
0.0
 10
58.0108315529779
 20
-96.03043584883575
 30
0.0
 10
58.0108315529779
 20
-96.03043584883575
 30
0.0
 10
58.0108315529779
 20
-96.03043584883575
 30
0.0
 10
50.12981147626137
 20
-96.03043584883575
 30
0.0
 10
50.12981147626137
 20
-96.03043584883575
 30
0.0
 10
50.12981147626137
 20
-96.03043584883575
 30
0.0
 10
44.19256162773324
 20
-101.564460707651
 30
0.0
 10
44.19256162773324
 20
-101.564460707651
 30
0.0
 10
43.81152635967648
 20
-101.9757995860458
 30
0.0
 10
44.07610968625973
 20
-102.6968420676504
 30
0.0
 10
44.60887467266776
 20
-102.6968420676504
 30
0.0
 10
44.60887467266776
 20
-102.6968420676504
 30
0.0
 10
58.0108315529779
 20
-102.6968420676504
 30
0.0
 10
58.0108315529779
 20
-102.6968420676504
 30
0.0
 10
58.0108315529779
 20
-102.6968420676504
 30
0.0
 10
58.0108315529779
 20
-109.3636363420111
 30
0.0
 10
58.0108315529779
 20
-109.3636363420111
 30
0.0
 10
58.0108315529779
 20
-109.3636363420111
 30
0.0
 10
44.01271552121038
 20
-109.3636363420111
 30
0.0
 10
44.01271552121038
 20
-109.3636363420111
 30
0.0
 10
44.01271552121038
 20
-109.3636363420111
 30
0.0
 10
44.01271552121038
 20
-116.0300425608258
 30
0.0
 10
44.01271552121038
 20
-116.0300425608258
 30
0.0
 10
44.01271552121038
 20
-116.0300425608258
 30
0.0
 10
81.01165985506645
 20
-116.0300425608258
 30
0.0
 10
81.01165985506645
 20
-116.0300425608258
 30
0.0
 10
81.01165985506645
 20
-116.0300425608258
 30
0.0
 10
81.01165985506645
 20
-109.3639891197796
 30
0.0
 10
81.01165985506645
 20
-109.3639891197796
 30
0.0
 10
81.01165985506645
 20
-109.3639891197796
 30
0.0
 10
84.01199950074363
 20
-109.3639891197796
 30
0.0
 10
84.01199950074363
 20
-109.3639891197796
 30
0.0
 10
84.01199950074363
 20
-109.3639891197796
 30
0.0
 10
84.01199950074363
 20
-116.0300425608258
 30
0.0
 10
84.01199950074363
 20
-116.0300425608258
 30
0.0
 10
84.01199950074363
 20
-116.0300425608258
 30
0.0
 10
108.5004210982138
 20
-116.0300425608258
 30
0.0
 10
108.5004210982138
 20
-116.0300425608258
 30
0.0
 10
108.5004210982138
 20
-116.0300425608258
 30
0.0
 10
108.5004210982138
 20
-109.3639891197796
 30
0.0
 10
108.5004210982138
 20
-109.3639891197796
 30
0.0
 10
108.5004210982138
 20
-109.3639891197796
 30
0.0
 10
111.5004079661226
 20
-109.3639891197796
 30
0.0
 10
111.5004079661226
 20
-109.3639891197796
 30
0.0
 10
111.5004079661226
 20
-109.3639891197796
 30
0.0
 10
111.5004079661226
 20
-116.0300425608258
 30
0.0
 10
111.5004079661226
 20
-116.0300425608258
 30
0.0
 10
111.5004079661226
 20
-116.0300425608258
 30
0.0
 10
136.0112309519108
 20
-116.0300425608258
 30
0.0
 10
136.0112309519108
 20
-116.0300425608258
 30
0.0
 10
136.0112309519108
 20
-116.0300425608258
 30
0.0
 10
136.0112309519108
 20
-109.3639891197796
 30
0.0
 10
136.0112309519108
 20
-109.3639891197796
 30
0.0
 10
136.0112309519108
 20
-109.3639891197796
 30
0.0
 10
139.011570597588
 20
-109.3639891197796
 30
0.0
 10
139.011570597588
 20
-109.3639891197796
 30
0.0
 10
139.011570597588
 20
-109.3639891197796
 30
0.0
 10
139.011570597588
 20
-116.0300425608258
 30
0.0
 10
139.011570597588
 20
-116.0300425608258
 30
0.0
 10
139.011570597588
 20
-116.0300425608258
 30
0.0
 10
175.1323452316258
 20
-116.0300425608258
 30
0.0
 10
175.1323452316258
 20
-116.0300425608258
 30
0.0
 10
175.1323452316258
 20
-116.0300425608258
 30
0.0
 10
175.1323452316258
 20
-109.3636363420111
 30
0.0
 10
175.1323452316258
 20
-109.3636363420111
 30
0.0
 10
175.1323452316258
 20
-109.3636363420111
 30
0.0
 10
187.8640652301833
 20
-109.3636363420111
 30
0.0
 10
187.8640652301833
 20
-109.3636363420111
 30
0.0
 10
188.5623832223303
 20
-109.3636363420111
 30
0.0
 10
189.1335657077583
 20
-108.7324816358907
 30
0.0
 10
189.1335657077583
 20
-107.9525252669001
 30
0.0
 10
189.1335657077583
 20
-107.9525252669001
 30
0.0
 10
189.1335657077583
 20
-103.8450984272452
 30
0.0
 10
189.1335657077583
 20
-103.8450984272452
 30
0.0
 10
189.1335657077583
 20
-103.2105217767676
 30
0.0
 10
188.6681459974099
 20
-102.6968420676504
 30
0.0
 10
188.0969282342051
 20
-102.6968420676504
 30
0.0
  0
SPLINE
  5
BB
330
1F
100
AcDbEntity
  8
Calque 15
 62
   250
420
  2301728
370
    35
100
AcDbSpline
210
0.0
220
0.0
230
1.0
 70
    11
 71
     3
 72
   107
 73
   103
 74
     0
 42
0.0000000001
 43
0.0000000001
 12
1.0
 22
0.0
 32
0.0
 13
1.0
 23
0.0
 33
0.0
 40
0.0
 40
0.0
 40
0.0
 40
0.0
 40
1.0
 40
1.0
 40
1.0
 40
2.0
 40
2.0
 40
2.0
 40
3.0
 40
3.0
 40
3.0
 40
4.0
 40
4.0
 40
4.0
 40
5.0
 40
5.0
 40
5.0
 40
6.0
 40
6.0
 40
6.0
 40
7.0
 40
7.0
 40
7.0
 40
8.0
 40
8.0
 40
8.0
 40
9.0
 40
9.0
 40
9.0
 40
10.0
 40
10.0
 40
10.0
 40
11.0
 40
11.0
 40
11.0
 40
12.0
 40
12.0
 40
12.0
 40
13.0
 40
13.0
 40
13.0
 40
14.0
 40
14.0
 40
14.0
 40
15.0
 40
15.0
 40
15.0
 40
16.0
 40
16.0
 40
16.0
 40
17.0
 40
17.0
 40
17.0
 40
18.0
 40
18.0
 40
18.0
 40
19.0
 40
19.0
 40
19.0
 40
20.0
 40
20.0
 40
20.0
 40
21.0
 40
21.0
 40
21.0
 40
22.0
 40
22.0
 40
22.0
 40
23.0
 40
23.0
 40
23.0
 40
24.0
 40
24.0
 40
24.0
 40
25.0
 40
25.0
 40
25.0
 40
26.0
 40
26.0
 40
26.0
 40
27.0
 40
27.0
 40
27.0
 40
28.0
 40
28.0
 40
28.0
 40
29.0
 40
29.0
 40
29.0
 40
30.0
 40
30.0
 40
30.0
 40
31.0
 40
31.0
 40
31.0
 40
32.0
 40
32.0
 40
32.0
 40
33.0
 40
33.0
 40
33.0
 40
34.0
 40
34.0
 40
34.0
 40
34.0
 10
186.197389413256
 20
-104.3618625849039
 30
0.0
 10
186.197389413256
 20
-104.3618625849039
 30
0.0
 10
174.7372977611828
 20
-103.9458670399613
 30
0.0
 10
174.7372977611828
 20
-103.9458670399613
 30
0.0
 10
174.7372977611828
 20
-103.9458670399613
 30
0.0
 10
173.0984686363262
 20
-105.6350022746453
 30
0.0
 10
173.0984686363262
 20
-105.6350022746453
 30
0.0
 10
173.0984686363262
 20
-105.6350022746453
 30
0.0
 10
171.4654956224312
 20
-103.8273689874292
 30
0.0
 10
171.4654956224312
 20
-103.8273689874292
 30
0.0
 10
171.4654956224312
 20
-103.8273689874292
 30
0.0
 10
161.0203154684895
 20
-103.4480623304391
 30
0.0
 10
161.0203154684895
 20
-103.4480623304391
 30
0.0
 10
158.1660206839513
 20
-103.4480623304391
 30
0.0
 10
155.3679285331144
 20
-102.6886023498146
 30
0.0
 10
152.9401824839402
 20
-101.2549134975021
 30
0.0
 10
152.9401824839402
 20
-101.2549134975021
 30
0.0
 10
148.9107900867386
 20
-98.87503939155113
 30
0.0
 10
148.9107900867386
 20
-98.87503939155113
 30
0.0
 10
146.962257358672
 20
-97.7245605320134
 30
0.0
 10
144.7163682493027
 20
-97.11510165867341
 30
0.0
 10
142.4253988064719
 20
-97.11510165867341
 30
0.0
 10
142.4253988064719
 20
-97.11510165867341
 30
0.0
 10
56.05908162224937
 20
-97.11510165867341
 30
0.0
 10
56.05908162224937
 20
-97.11510165867341
 30
0.0
 10
56.05908162224937
 20
-97.11510165867341
 30
0.0
 10
45.24474967592374
 20
-97.11150332543157
 30
0.0
 10
44.57193191531097
 20
-101.1134848899995
 30
0.0
 10
44.57193191531097
 20
-101.1134848899995
 30
0.0
 10
44.15956998138675
 20
-103.4318698308522
 30
0.0
 10
44.15956998138675
 20
-103.4318698308522
 30
0.0
 10
44.15956998138675
 20
-103.4318698308522
 30
0.0
 10
68.08883881534469
 20
-104.8102431290203
 30
0.0
 10
68.08883881534469
 20
-104.8102431290203
 30
0.0
 10
68.08883881534469
 20
-104.8102431290203
 30
0.0
 10
68.08883881534469
 20
-110.1141510492616
 30
0.0
 10
68.08883881534469
 20
-110.1141510492616
 30
0.0
 10
68.08883881534469
 20
-110.1141510492616
 30
0.0
 10
58.48908544914369
 20
-110.1141510492616
 30
0.0
 10
58.48908544914369
 20
-110.1141510492616
 30
0.0
 10
56.61149882792488
 20
-110.1141510492616
 30
0.0
 10
55.08929553587956
 20
-111.567277956634
 30
0.0
 10
55.08929553587956
 20
-113.3597770775702
 30
0.0
 10
55.08929553587956
 20
-113.3597770775702
 30
0.0
 10
55.08929553587956
 20
-116.1149714517235
 30
0.0
 10
55.08929553587956
 20
-116.1149714517235
 30
0.0
 10
55.08929553587956
 20
-116.1149714517235
 30
0.0
 10
87.83596247822058
 20
-116.1149714517235
 30
0.0
 10
87.83596247822058
 20
-116.1149714517235
 30
0.0
 10
87.83596247822058
 20
-116.1149714517235
 30
0.0
 10
87.83596247822058
 20
-109.7822224466187
 30
0.0
 10
87.83596247822058
 20
-109.7822224466187
 30
0.0
 10
87.83596247822058
 20
-109.7822224466187
 30
0.0
 10
90.82148545760879
 20
-109.7822224466187
 30
0.0
 10
90.82148545760879
 20
-109.7822224466187
 30
0.0
 10
90.82148545760879
 20
-109.7822224466187
 30
0.0
 10
90.82148545760879
 20
-116.1149714517235
 30
0.0
 10
90.82148545760879
 20
-116.1149714517235
 30
0.0
 10
90.82148545760879
 20
-116.1149714517235
 30
0.0
 10
115.1895040025955
 20
-116.1149714517235
 30
0.0
 10
115.1895040025955
 20
-116.1149714517235
 30
0.0
 10
115.1895040025955
 20
-116.1149714517235
 30
0.0
 10
115.1895040025955
 20
-109.7822224466187
 30
0.0
 10
115.1895040025955
 20
-109.7822224466187
 30
0.0
 10
115.1895040025955
 20
-109.7822224466187
 30
0.0
 10
118.1750269819843
 20
-109.7822224466187
 30
0.0
 10
118.1750269819843
 20
-109.7822224466187
 30
0.0
 10
118.1750269819843
 20
-109.7822224466187
 30
0.0
 10
118.1750269819843
 20
-116.1149714517235
 30
0.0
 10
118.1750269819843
 20
-116.1149714517235
 30
0.0
 10
118.1750269819843
 20
-116.1149714517235
 30
0.0
 10
142.5656233041728
 20
-116.1149714517235
 30
0.0
 10
142.5656233041728
 20
-116.1149714517235
 30
0.0
 10
142.5656233041728
 20
-116.1149714517235
 30
0.0
 10
142.5656233041728
 20
-109.7822224466187
 30
0.0
 10
142.5656233041728
 20
-109.7822224466187
 30
0.0
 10
142.5656233041728
 20
-109.7822224466187
 30
0.0
 10
145.5511462835614
 20
-109.7822224466187
 30
0.0
 10
145.5511462835614
 20
-109.7822224466187
 30
0.0
 10
145.5511462835614
 20
-109.7822224466187
 30
0.0
 10
145.5511462835614
 20
-116.1149714517235
 30
0.0
 10
145.5511462835614
 20
-116.1149714517235
 30
0.0
 10
145.5511462835614
 20
-116.1149714517235
 30
0.0
 10
177.1743626866736
 20
-116.1149714517235
 30
0.0
 10
177.1743626866736
 20
-116.1149714517235
 30
0.0
 10
177.1743626866736
 20
-116.1149714517235
 30
0.0
 10
177.1743626866736
 20
-112.4859112665314
 30
0.0
 10
177.1743626866736
 20
-112.4859112665314
 30
0.0
 10
177.1743626866736
 20
-110.9922854713033
 30
0.0
 10
178.4424873888778
 20
-109.7815168910815
 30
0.0
 10
180.0069156822992
 20
-109.7815168910815
 30
0.0
 10
180.0069156822992
 20
-109.7815168910815
 30
0.0
 10
186.8664324517428
 20
-109.7815168910815
 30
0.0
 10
186.8664324517428
 20
-109.7815168910815
 30
0.0
 10
187.5616516006729
 20
-109.7815168910815
 30
0.0
 10
189.2277210169941
 20
-109.1820769063745
 30
0.0
 10
189.2277210169941
 20
-108.4410319252801
 30
0.0
 10
189.2277210169941
 20
-108.4410319252801
 30
0.0
 10
189.2277210169941
 20
-105.9369800447193
 30
0.0
 10
189.2277210169941
 20
-105.9369800447193
 30
0.0
 10
189.2277210169941
 20
-105.3337300601092
 30
0.0
 10
186.7658555098643
 20
-104.3618625849039
 30
0.0
 10
186.197389413256
 20
-104.3618625849039
 30
0.0
  0
INSERT
  5
BE
330
1F
100
AcDbEntity
  8
Calque 16
100
AcDbBlockReference
  2
block 5
 10
0.0
 20
0.0
 30
0.0
  0
SPLINE
  5
C3
330
1F
100
AcDbEntity
  8
Calque 17
 62
   250
420
  2301728
370
    35
100
AcDbSpline
210
0.0
220
0.0
230
1.0
 70
    11
 71
     3
 72
   107
 73
   103
 74
     0
 42
0.0000000001
 43
0.0000000001
 12
1.0
 22
0.0
 32
0.0
 13
1.0
 23
0.0
 33
0.0
 40
0.0
 40
0.0
 40
0.0
 40
0.0
 40
1.0
 40
1.0
 40
1.0
 40
2.0
 40
2.0
 40
2.0
 40
3.0
 40
3.0
 40
3.0
 40
4.0
 40
4.0
 40
4.0
 40
5.0
 40
5.0
 40
5.0
 40
6.0
 40
6.0
 40
6.0
 40
7.0
 40
7.0
 40
7.0
 40
8.0
 40
8.0
 40
8.0
 40
9.0
 40
9.0
 40
9.0
 40
10.0
 40
10.0
 40
10.0
 40
11.0
 40
11.0
 40
11.0
 40
12.0
 40
12.0
 40
12.0
 40
13.0
 40
13.0
 40
13.0
 40
14.0
 40
14.0
 40
14.0
 40
15.0
 40
15.0
 40
15.0
 40
16.0
 40
16.0
 40
16.0
 40
17.0
 40
17.0
 40
17.0
 40
18.0
 40
18.0
 40
18.0
 40
19.0
 40
19.0
 40
19.0
 40
20.0
 40
20.0
 40
20.0
 40
21.0
 40
21.0
 40
21.0
 40
22.0
 40
22.0
 40
22.0
 40
23.0
 40
23.0
 40
23.0
 40
24.0
 40
24.0
 40
24.0
 40
25.0
 40
25.0
 40
25.0
 40
26.0
 40
26.0
 40
26.0
 40
27.0
 40
27.0
 40
27.0
 40
28.0
 40
28.0
 40
28.0
 40
29.0
 40
29.0
 40
29.0
 40
30.0
 40
30.0
 40
30.0
 40
31.0
 40
31.0
 40
31.0
 40
32.0
 40
32.0
 40
32.0
 40
33.0
 40
33.0
 40
33.0
 40
34.0
 40
34.0
 40
34.0
 40
34.0
 10
186.3135288118363
 20
-103.2305954595878
 30
0.0
 10
186.3135288118363
 20
-103.2305954595878
 30
0.0
 10
174.4534224477462
 20
-102.7708584616298
 30
0.0
 10
174.4534224477462
 20
-102.7708584616298
 30
0.0
 10
174.4534224477462
 20
-102.7708584616298
 30
0.0
 10
172.8145933228896
 20
-104.6377584140015
 30
0.0
 10
172.8145933228896
 20
-104.6377584140015
 30
0.0
 10
172.8145933228896
 20
-104.6377584140015
 30
0.0
 10
171.1812675312258
 20
-102.6395898538676
 30
0.0
 10
171.1812675312258
 20
-102.6395898538676
 30
0.0
 10
171.1812675312258
 20
-102.6395898538676
 30
0.0
 10
160.7364350199179
 20
-102.2204898645597
 30
0.0
 10
160.7364350199179
 20
-102.2204898645597
 30
0.0
 10
157.8821806482916
 20
-102.2204898645597
 30
0.0
 10
155.0840884974546
 20
-101.3812668304145
 30
0.0
 10
152.6563071705036
 20
-99.7965185375115
 30
0.0
 10
152.6563071705036
 20
-99.7965185375115
 30
0.0
 10
148.626914773302
 20
-97.16634546110367
 30
0.0
 10
148.626914773302
 20
-97.16634546110367
 30
0.0
 10
146.6783820452354
 20
-95.89462002594611
 30
0.0
 10
144.432528213643
 20
-95.22074393202702
 30
0.0
 10
142.141554105424
 20
-95.22074393202702
 30
0.0
 10
142.141554105424
 20
-95.22074393202702
 30
0.0
 10
55.37508576346512
 20
-95.22074393202702
 30
0.0
 10
55.37508576346512
 20
-95.22074393202702
 30
0.0
 10
55.37508576346512
 20
-95.22074393202702
 30
0.0
 10
44.56075381713949
 20
-95.21714559878548
 30
0.0
 10
43.88793605652672
 20
-99.63995576372797
 30
0.0
 10
43.88793605652672
 20
-99.63995576372797
 30
0.0
 10
43.47553884482595
 20
-102.2025687539058
 30
0.0
 10
43.47553884482595
 20
-102.2025687539058
 30
0.0
 10
43.47553884482595
 20
-102.2025687539058
 30
0.0
 10
67.80499877968495
 20
-103.7258278817109
 30
0.0
 10
67.80499877968495
 20
-103.7258278817109
 30
0.0
 10
67.80499877968495
 20
-103.7258278817109
 30
0.0
 10
67.80499877968495
 20
-109.5883565691091
 30
0.0
 10
67.80499877968495
 20
-109.5883565691091
 30
0.0
 10
67.80499877968495
 20
-109.5883565691091
 30
0.0
 10
58.20506902459956
 20
-109.5883565691091
 30
0.0
 10
58.20506902459956
 20
-109.5883565691091
 30
0.0
 10
56.32765629471857
 20
-109.5883565691091
 30
0.0
 10
54.80545550022014
 20
-111.194450746726
 30
0.0
 10
54.80545550022014
 20
-113.1757212517352
 30
0.0
 10
54.80545550022014
 20
-113.1757212517352
 30
0.0
 10
54.80545550022014
 20
-116.2208283962699
 30
0.0
 10
54.80545550022014
 20
-116.2208283962699
 30
0.0
 10
54.80545550022014
 20
-116.2208283962699
 30
0.0
 10
87.55194605367613
 20
-116.2208283962699
 30
0.0
 10
87.55194605367613
 20
-116.2208283962699
 30
0.0
 10
87.55194605367613
 20
-116.2208283962699
 30
0.0
 10
87.55194605367613
 20
-109.2214352415063
 30
0.0
 10
87.55194605367613
 20
-109.2214352415063
 30
0.0
 10
87.55194605367613
 20
-109.2214352415063
 30
0.0
 10
90.53761014417216
 20
-109.2214352415063
 30
0.0
 10
90.53761014417216
 20
-109.2214352415063
 30
0.0
 10
90.53761014417216
 20
-109.2214352415063
 30
0.0
 10
90.53761014417216
 20
-116.2208283962699
 30
0.0
 10
90.53761014417216
 20
-116.2208283962699
 30
0.0
 10
90.53761014417216
 20
-116.2208283962699
 30
0.0
 10
114.9056639669354
 20
-116.2208283962699
 30
0.0
 10
114.9056639669354
 20
-116.2208283962699
 30
0.0
 10
114.9056639669354
 20
-116.2208283962699
 30
0.0
 10
114.9056639669354
 20
-109.2214352415063
 30
0.0
 10
114.9056639669354
 20
-109.2214352415063
 30
0.0
 10
114.9056639669354
 20
-109.2214352415063
 30
0.0
 10
117.8911516685477
 20
-109.2214352415063
 30
0.0
 10
117.8911516685477
 20
-109.2214352415063
 30
0.0
 10
117.8911516685477
 20
-109.2214352415063
 30
0.0
 10
117.8911516685477
 20
-116.2208283962699
 30
0.0
 10
117.8911516685477
 20
-116.2208283962699
 30
0.0
 10
117.8911516685477
 20
-116.2208283962699
 30
0.0
 10
142.2817526464642
 20
-116.2208283962699
 30
0.0
 10
142.2817526464642
 20
-116.2208283962699
 30
0.0
 10
142.2817526464642
 20
-116.2208283962699
 30
0.0
 10
142.2817526464642
 20
-109.2214352415063
 30
0.0
 10
142.2817526464642
 20
-109.2214352415063
 30
0.0
 10
142.2817526464642
 20
-109.2214352415063
 30
0.0
 10
145.2672709701247
 20
-109.2214352415063
 30
0.0
 10
145.2672709701247
 20
-109.2214352415063
 30
0.0
 10
145.2672709701247
 20
-109.2214352415063
 30
0.0
 10
145.2672709701247
 20
-116.2208283962699
 30
0.0
 10
145.2672709701247
 20
-116.2208283962699
 30
0.0
 10
145.2672709701247
 20
-116.2208283962699
 30
0.0
 10
176.8901643300242
 20
-116.2208283962699
 30
0.0
 10
176.8901643300242
 20
-116.2208283962699
 30
0.0
 10
176.8901643300242
 20
-116.2208283962699
 30
0.0
 10
176.8901643300242
 20
-112.2097098874913
 30
0.0
 10
176.8901643300242
 20
-112.2097098874913
 30
0.0
 10
176.8901643300242
 20
-110.5588157629427
 30
0.0
 10
178.158647353218
 20
-109.2207621247568
 30
0.0
 10
179.7230403688626
 20
-109.2207621247568
 30
0.0
 10
179.7230403688626
 20
-109.2207621247568
 30
0.0
 10
186.9828893503151
 20
-109.2207621247568
 30
0.0
 10
186.9828893503151
 20
-109.2207621247568
 30
0.0
 10
187.6777909992533
 20
-109.2207621247568
 30
0.0
 10
189.3438192900827
 20
-108.5582454582555
 30
0.0
 10
189.3438192900827
 20
-107.7393452793175
 30
0.0
 10
189.3438192900827
 20
-107.7393452793175
 30
0.0
 10
189.3438192900827
 20
-104.9715537924857
 30
0.0
 10
189.3438192900827
 20
-104.9715537924857
 30
0.0
 10
189.3438192900827
 20
-104.3047714780519
 30
0.0
 10
186.8819596306678
 20
-103.2305954595878
 30
0.0
 10
186.3135288118363
 20
-103.2305954595878
 30
0.0
  0
INSERT
  5
C6
330
1F
100
AcDbEntity
  8
Calque 18
100
AcDbBlockReference
  2
block 6
 10
0.0
 20
0.0
 30
0.0
  0
INSERT
  5
D6
330
1F
100
AcDbEntity
  8
Calque 19
100
AcDbBlockReference
  2
block 7
 10
0.0
 20
0.0
 30
0.0
  0
ENDSEC
  0
SECTION
  2
OBJECTS
  0
DICTIONARY
  5
C
330
0
100
AcDbDictionary
281
     1
  3
ACAD_GROUP
350
D
  3
ACAD_LAYOUT
350
1A
  3
ACAD_MATERIAL
350
3B
  3
ACAD_MLEADERSTYLE
350
E5
  3
ACAD_MLINESTYLE
350
17
  3
ACAD_PLOTSETTINGS
350
19
  3
ACAD_PLOTSTYLENAME
350
E
  3
ACAD_TABLESTYLE
350
E4
  3
ACAD_VISUALSTYLE
350
2A
  0
SUN
  5
3F
330
29
100
AcDbSun
 90
        1
290
     0
 63
     7
421
 16777215
 40
1.0
291
     1
 91
  2455826
 92
 54000000
292
     0
 70
     2
 71
   256
280
     1
  0
DICTIONARY
  5
D
102
{ACAD_REACTORS
330
C
102
}
330
C
100
AcDbDictionary
281
     1
  0
DICTIONARY
  5
1A
102
{ACAD_REACTORS
330
C
102
}
330
C
100
AcDbDictionary
281
     1
  3
Layout1
350
1E
  3
Layout2
350
26
  3
Model
350
22
  0
DICTIONARY
  5
3B
102
{ACAD_REACTORS
330
C
102
}
330
C
100
AcDbDictionary
281
     1
  3
ByBlock
350
3D
  3
ByLayer
350
3C
  3
Global
350
3E
  0
DICTIONARY
  5
E5
102
{ACAD_REACTORS
330
C
102
}
330
C
100
AcDbDictionary
281
     1
  0
DICTIONARY
  5
17
102
{ACAD_REACTORS
330
C
102
}
330
C
100
AcDbDictionary
281
     1
  3
Standard
350
18
  0
DICTIONARY
  5
19
102
{ACAD_REACTORS
330
C
102
}
330
C
100
AcDbDictionary
281
     1
  0
ACDBDICTIONARYWDFLT
  5
E
102
{ACAD_REACTORS
330
C
102
}
330
C
100
AcDbDictionary
281
     1
  3
Normal
350
F
100
AcDbDictionaryWithDefault
340
F
  0
DICTIONARY
  5
E4
102
{ACAD_REACTORS
330
C
102
}
330
C
100
AcDbDictionary
281
     1
  0
DICTIONARY
  5
2A
102
{ACAD_REACTORS
330
C
102
}
330
C
100
AcDbDictionary
281
     1
  3
2dWireframe
350
2F
  3
3D Hidden
350
31
  3
3dWireframe
350
30
  3
Basic
350
32
  3
Brighten
350
36
  3
ColorChange
350
3A
  3
Conceptual
350
34
  3
Dim
350
35
  3
Facepattern
350
39
  3
Flat
350
2B
  3
FlatWithEdges
350
2C
  3
Gouraud
350
2D
  3
GouraudWithEdges
350
2E
  3
Linepattern
350
38
  3
Realistic
350
33
  3
Thicken
350
37
  0
LAYOUT
  5
1E
102
{ACAD_REACTORS
330
1A
102
}
330
1A
100
AcDbPlotSettings
  1

  2
none_device
  4

  6

 40
0.0
 41
0.0
 42
0.0
 43
0.0
 44
0.0
 45
0.0
 46
0.0
 47
0.0
 48
0.0
 49
0.0
140
0.0
141
0.0
142
1.0
143
1.0
 70
   688
 72
     0
 73
     0
 74
     5
  7

 75
    16
 76
     0
 77
     2
 78
   300
147
1.0
148
0.0
149
0.0
100
AcDbLayout
  1
Layout1
 70
     1
 71
     1
 10
0.0
 20
0.0
 11
12.0
 21
9.0
 12
0.0
 22
0.0
 32
0.0
 14
1.000000000000000E+20
 24
1.000000000000000E+20
 34
1.000000000000000E+20
 15
-1.000000000000000E+20
 25
-1.000000000000000E+20
 35
-1.000000000000000E+20
146
0.0
 13
0.0
 23
0.0
 33
0.0
 16
1.0
 26
0.0
 36
0.0
 17
0.0
 27
1.0
 37
0.0
 76
     0
330
1B
  0
LAYOUT
  5
26
102
{ACAD_REACTORS
330
1A
102
}
330
1A
100
AcDbPlotSettings
  1

  2
none_device
  4

  6

 40
0.0
 41
0.0
 42
0.0
 43
0.0
 44
0.0
 45
0.0
 46
0.0
 47
0.0
 48
0.0
 49
0.0
140
0.0
141
0.0
142
1.0
143
1.0
 70
   688
 72
     0
 73
     0
 74
     5
  7

 75
    16
 76
     0
 77
     2
 78
   300
147
1.0
148
0.0
149
0.0
100
AcDbLayout
  1
Layout2
 70
     1
 71
     2
 10
0.0
 20
0.0
 11
0.0
 21
0.0
 12
0.0
 22
0.0
 32
0.0
 14
0.0
 24
0.0
 34
0.0
 15
0.0
 25
0.0
 35
0.0
146
0.0
 13
0.0
 23
0.0
 33
0.0
 16
1.0
 26
0.0
 36
0.0
 17
0.0
 27
1.0
 37
0.0
 76
     0
330
23
  0
LAYOUT
  5
22
102
{ACAD_REACTORS
330
1A
102
}
330
1A
100
AcDbPlotSettings
  1

  2
none_device
  4

  6

 40
0.0
 41
0.0
 42
0.0
 43
0.0
 44
0.0
 45
0.0
 46
0.0
 47
0.0
 48
0.0
 49
0.0
140
0.0
141
0.0
142
1.0
143
1.0
 70
  1712
 72
     0
 73
     0
 74
     0
  7

 75
     0
 76
     0
 77
     2
 78
   300
147
1.0
148
0.0
149
0.0
100
AcDbLayout
  1
Model
 70
     1
 71
     0
 10
0.0
 20
0.0
 11
12.0
 21
9.0
 12
0.0
 22
0.0
 32
0.0
 14
1.000000000000000E+20
 24
1.000000000000000E+20
 34
1.000000000000000E+20
 15
-1.000000000000000E+20
 25
-1.000000000000000E+20
 35
-1.000000000000000E+20
146
0.0
 13
0.0
 23
0.0
 33
0.0
 16
1.0
 26
0.0
 36
0.0
 17
0.0
 27
1.0
 37
0.0
 76
     0
330
1F
331
29
  0
MATERIAL
  5
3D
102
{ACAD_REACTORS
330
3B
102
}
330
3B
100
AcDbMaterial
  1
ByBlock
 72
     1
 94
      127
  0
MATERIAL
  5
3C
102
{ACAD_REACTORS
330
3B
102
}
330
3B
100
AcDbMaterial
  1
ByLayer
 72
     1
 94
      127
  0
MATERIAL
  5
3E
102
{ACAD_REACTORS
330
3B
102
}
330
3B
100
AcDbMaterial
  1
Global
 72
     1
 94
      127
  0
MLINESTYLE
  5
18
102
{ACAD_REACTORS
330
17
102
}
330
17
100
AcDbMlineStyle
  2
Standard
 70
     0
  3

 62
   256
 51
90.0
 52
90.0
 71
     2
 49
0.5
 62
   256
  6
BYLAYER
 49
-0.5
 62
   256
  6
BYLAYER
  0
ACDBPLACEHOLDER
  5
F
102
{ACAD_REACTORS
330
E
102
}
330
E
  0
VISUALSTYLE
  5
2F
102
{ACAD_REACTORS
330
2A
102
}
330
2A
100
AcDbVisualStyle
  2
2dWireframe
 70
     4
177
     2
291
     0
 71
     0
176
     1
 72
     2
176
     1
 73
     0
176
     1
 90
        0
176
     1
 40
-0.6
176
     1
 41
-30.0
176
     1
 62
     5
 63
     7
421
 16777215
176
     1
 74
     1
176
     1
 91
        4
176
     1
 64
     7
176
     1
 65
   257
176
     1
 75
     1
176
     1
175
     1
176
     1
 42
1.0
176
     1
 92
        0
176
     1
 66
   257
176
     1
 43
1.0
176
     1
 76
     1
176
     1
 77
     6
176
     1
 78
     2
176
     1
 67
     7
176
     1
 79
     5
176
     1
170
     0
176
     1
171
     0
176
     1
290
     0
176
     1
 93
        1
176
     1
 44
0.0
176
     1
173
     0
176
     1
  0
VISUALSTYLE
  5
31
102
{ACAD_REACTORS
330
2A
102
}
330
2A
100
AcDbVisualStyle
  2
3D Hidden
 70
     6
177
     2
291
     0
 71
     1
176
     1
 72
     2
176
     1
 73
     2
176
     1
 90
        0
176
     1
 40
-0.6
176
     1
 41
-30.0
176
     1
 62
     5
 63
     7
421
 16777215
176
     1
 74
     2
176
     1
 91
        2
176
     1
 64
     7
176
     1
 65
   257
176
     1
 75
     2
176
     1
175
     1
176
     1
 42
40.0
176
     1
 92
        0
176
     1
 66
   257
176
     1
 43
1.0
176
     1
 76
     1
176
     1
 77
     6
176
     1
 78
     2
176
     1
 67
     7
176
     1
 79
     3
176
     1
170
     0
176
     1
171
     0
176
     1
290
     0
176
     1
 93
        1
176
     1
 44
0.0
176
     1
173
     0
176
     1
  0
VISUALSTYLE
  5
30
102
{ACAD_REACTORS
330
2A
102
}
330
2A
100
AcDbVisualStyle
  2
3dWireframe
 70
     5
177
     2
291
     0
 71
     0
176
     1
 72
     2
176
     1
 73
     0
176
     1
 90
        0
176
     1
 40
-0.6
176
     1
 41
-30.0
176
     1
 62
     5
 63
     7
421
 16777215
176
     1
 74
     1
176
     1
 91
        4
176
     1
 64
     7
176
     1
 65
   257
176
     1
 75
     1
176
     1
175
     1
176
     1
 42
1.0
176
     1
 92
        0
176
     1
 66
   257
176
     1
 43
1.0
176
     1
 76
     1
176
     1
 77
     6
176
     1
 78
     2
176
     1
 67
     7
176
     1
 79
     5
176
     1
170
     0
176
     1
171
     0
176
     1
290
     0
176
     1
 93
        1
176
     1
 44
0.0
176
     1
173
     0
176
     1
  0
VISUALSTYLE
  5
32
102
{ACAD_REACTORS
330
2A
102
}
330
2A
100
AcDbVisualStyle
  2
Basic
 70
     7
177
     2
291
     1
 71
     1
176
     1
 72
     0
176
     1
 73
     1
176
     1
 90
        0
176
     1
 40
-0.6
176
     1
 41
-30.0
176
     1
 62
     5
 63
     7
421
 16777215
176
     1
 74
     0
176
     1
 91
        4
176
     1
 64
     7
176
     1
 65
   257
176
     1
 75
     1
176
     1
175
     1
176
     1
 42
1.0
176
     1
 92
        8
176
     1
 66
     7
176
     1
 43
1.0
176
     1
 76
     1
176
     1
 77
     6
176
     1
 78
     2
176
     1
 67
     7
176
     1
 79
     5
176
     1
170
     0
176
     1
171
     0
176
     1
290
     0
176
     1
 93
        1
176
     1
 44
0.0
176
     1
173
     0
176
     1
  0
VISUALSTYLE
  5
36
102
{ACAD_REACTORS
330
2A
102
}
330
2A
100
AcDbVisualStyle
  2
Brighten
 70
    12
177
     2
291
     1
 71
     2
176
     1
 72
     2
176
     1
 73
     0
176
     1
 90
        0
176
     1
 40
-0.6
176
     1
 41
-30.0
176
     1
 62
     5
 63
     7
421
 16777215
176
     1
 74
     1
176
     1
 91
        4
176
     1
 64
     7
176
     1
 65
   257
176
     1
 75
     1
176
     1
175
     1
176
     1
 42
1.0
176
     1
 92
        8
176
     1
 66
     7
176
     1
 43
1.0
176
     1
 76
     1
176
     1
 77
     6
176
     1
 78
     2
176
     1
 67
     7
176
     1
 79
     5
176
     1
170
     0
176
     1
171
     0
176
     1
290
     0
176
     1
 93
        1
176
     1
 44
50.0
176
     1
173
     0
176
     1
  0
VISUALSTYLE
  5
3A
102
{ACAD_REACTORS
330
2A
102
}
330
2A
100
AcDbVisualStyle
  2
ColorChange
 70
    16
177
     2
291
     1
 71
     2
176
     1
 72
     2
176
     1
 73
     3
176
     1
 90
        0
176
     1
 40
-0.6
176
     1
 41
-30.0
176
     1
 62
     5
 63
     8
421
  8421504
176
     1
 74
     1
176
     1
 91
        4
176
     1
 64
     7
176
     1
 65
   257
176
     1
 75
     1
176
     1
175
     1
176
     1
 42
1.0
176
     1
 92
        8
176
     1
 66
     8
424
  8421504
176
     1
 43
1.0
176
     1
 76
     1
176
     1
 77
     6
176
     1
 78
     2
176
     1
 67
     7
176
     1
 79
     5
176
     1
170
     0
176
     1
171
     0
176
     1
290
     0
176
     1
 93
        1
176
     1
 44
0.0
176
     1
173
     0
176
     1
  0
VISUALSTYLE
  5
34
102
{ACAD_REACTORS
330
2A
102
}
330
2A
100
AcDbVisualStyle
  2
Conceptual
 70
     9
177
     2
291
     0
 71
     3
176
     1
 72
     2
176
     1
 73
     0
176
     1
 90
        0
176
     1
 40
-0.6
176
     1
 41
-30.0
176
     1
 62
     5
 63
     7
421
 16777215
176
     1
 74
     2
176
     1
 91
        2
176
     1
 64
     7
176
     1
 65
   257
176
     1
 75
     1
176
     1
175
     1
176
     1
 42
40.0
176
     1
 92
        8
176
     1
 66
     7
176
     1
 43
1.0
176
     1
 76
     1
176
     1
 77
     6
176
     1
 78
     2
176
     1
 67
     7
176
     1
 79
     3
176
     1
170
     0
176
     1
171
     0
176
     1
290
     0
176
     1
 93
        1
176
     1
 44
0.0
176
     1
173
     0
176
     1
  0
VISUALSTYLE
  5
35
102
{ACAD_REACTORS
330
2A
102
}
330
2A
100
AcDbVisualStyle
  2
Dim
 70
    11
177
     2
291
     1
 71
     2
176
     1
 72
     2
176
     1
 73
     0
176
     1
 90
        0
176
     1
 40
-0.6
176
     1
 41
-30.0
176
     1
 62
     5
 63
     7
421
 16777215
176
     1
 74
     1
176
     1
 91
        4
176
     1
 64
     7
176
     1
 65
   257
176
     1
 75
     1
176
     1
175
     1
176
     1
 42
1.0
176
     1
 92
        8
176
     1
 66
     7
176
     1
 43
1.0
176
     1
 76
     1
176
     1
 77
     6
176
     1
 78
     2
176
     1
 67
     7
176
     1
 79
     5
176
     1
170
     0
176
     1
171
     0
176
     1
290
     0
176
     1
 93
        1
176
     1
 44
-50.0
176
     1
173
     0
176
     1
  0
VISUALSTYLE
  5
39
102
{ACAD_REACTORS
330
2A
102
}
330
2A
100
AcDbVisualStyle
  2
Facepattern
 70
    15
177
     2
291
     1
 71
     2
176
     1
 72
     2
176
     1
 73
     0
176
     1
 90
        0
176
     1
 40
-0.6
176
     1
 41
-30.0
176
     1
 62
     5
 63
     7
421
 16777215
176
     1
 74
     1
176
     1
 91
        4
176
     1
 64
     7
176
     1
 65
   257
176
     1
 75
     1
176
     1
175
     1
176
     1
 42
1.0
176
     1
 92
        8
176
     1
 66
     7
176
     1
 43
1.0
176
     1
 76
     1
176
     1
 77
     6
176
     1
 78
     2
176
     1
 67
     7
176
     1
 79
     5
176
     1
170
     0
176
     1
171
     0
176
     1
290
     0
176
     1
 93
        1
176
     1
 44
0.0
176
     1
173
     0
176
     1
  0
VISUALSTYLE
  5
2B
102
{ACAD_REACTORS
330
2A
102
}
330
2A
100
AcDbVisualStyle
  2
Flat
 70
     0
177
     2
291
     1
 71
     2
176
     1
 72
     1
176
     1
 73
     1
176
     1
 90
        2
176
     1
 40
-0.6
176
     1
 41
30.0
176
     1
 62
     5
 63
     7
421
 16777215
176
     1
 74
     0
176
     1
 91
        4
176
     1
 64
     7
176
     1
 65
   257
176
     1
 75
     1
176
     1
175
     1
176
     1
 42
1.0
176
     1
 92
        8
176
     1
 66
     7
176
     1
 43
1.0
176
     1
 76
     1
176
     1
 77
     6
176
     1
 78
     2
176
     1
 67
     7
176
     1
 79
     5
176
     1
170
     0
176
     1
171
     0
176
     1
290
     0
176
     1
 93
       13
176
     1
 44
0.0
176
     1
173
     0
176
     1
  0
VISUALSTYLE
  5
2C
102
{ACAD_REACTORS
330
2A
102
}
330
2A
100
AcDbVisualStyle
  2
FlatWithEdges
 70
     1
177
     2
291
     1
 71
     2
176
     1
 72
     1
176
     1
 73
     1
176
     1
 90
        2
176
     1
 40
-0.6
176
     1
 41
30.0
176
     1
 62
     5
 63
     7
421
 16777215
176
     1
 74
     1
176
     1
 91
        4
176
     1
 64
     7
176
     1
 65
   257
176
     1
 75
     1
176
     1
175
     1
176
     1
 42
1.0
176
     1
 92
        0
176
     1
 66
   257
176
     1
 43
1.0
176
     1
 76
     1
176
     1
 77
     6
176
     1
 78
     2
176
     1
 67
     7
176
     1
 79
     5
176
     1
170
     0
176
     1
171
     0
176
     1
290
     0
176
     1
 93
       13
176
     1
 44
0.0
176
     1
173
     0
176
     1
  0
VISUALSTYLE
  5
2D
102
{ACAD_REACTORS
330
2A
102
}
330
2A
100
AcDbVisualStyle
  2
Gouraud
 70
     2
177
     2
291
     1
 71
     2
176
     1
 72
     2
176
     1
 73
     1
176
     1
 90
        2
176
     1
 40
-0.6
176
     1
 41
30.0
176
     1
 62
     5
 63
     7
421
 16777215
176
     1
 74
     0
176
     1
 91
        4
176
     1
 64
     7
176
     1
 65
   257
176
     1
 75
     1
176
     1
175
     1
176
     1
 42
1.0
176
     1
 92
        0
176
     1
 66
     7
176
     1
 43
1.0
176
     1
 76
     1
176
     1
 77
     6
176
     1
 78
     2
176
     1
 67
     7
176
     1
 79
     5
176
     1
170
     0
176
     1
171
     0
176
     1
290
     0
176
     1
 93
       13
176
     1
 44
0.0
176
     1
173
     0
176
     1
  0
VISUALSTYLE
  5
2E
102
{ACAD_REACTORS
330
2A
102
}
330
2A
100
AcDbVisualStyle
  2
GouraudWithEdges
 70
     3
177
     2
291
     1
 71
     2
176
     1
 72
     2
176
     1
 73
     1
176
     1
 90
        2
176
     1
 40
-0.6
176
     1
 41
30.0
176
     1
 62
     5
 63
     7
421
 16777215
176
     1
 74
     1
176
     1
 91
        4
176
     1
 64
     7
176
     1
 65
   257
176
     1
 75
     1
176
     1
175
     1
176
     1
 42
1.0
176
     1
 92
        0
176
     1
 66
   257
176
     1
 43
1.0
176
     1
 76
     1
176
     1
 77
     6
176
     1
 78
     2
176
     1
 67
     7
176
     1
 79
     5
176
     1
170
     0
176
     1
171
     0
176
     1
290
     0
176
     1
 93
       13
176
     1
 44
0.0
176
     1
173
     0
176
     1
  0
VISUALSTYLE
  5
38
102
{ACAD_REACTORS
330
2A
102
}
330
2A
100
AcDbVisualStyle
  2
Linepattern
 70
    14
177
     2
291
     1
 71
     2
176
     1
 72
     2
176
     1
 73
     0
176
     1
 90
        0
176
     1
 40
-0.6
176
     1
 41
-30.0
176
     1
 62
     5
 63
     7
421
 16777215
176
     1
 74
     1
176
     1
 91
        4
176
     1
 64
     7
176
     1
 65
   257
176
     1
 75
     7
176
     1
175
     7
176
     1
 42
1.0
176
     1
 92
        8
176
     1
 66
     7
176
     1
 43
1.0
176
     1
 76
     1
176
     1
 77
     6
176
     1
 78
     2
176
     1
 67
     7
176
     1
 79
     5
176
     1
170
     0
176
     1
171
     0
176
     1
290
     0
176
     1
 93
        1
176
     1
 44
0.0
176
     1
173
     0
176
     1
  0
VISUALSTYLE
  5
33
102
{ACAD_REACTORS
330
2A
102
}
330
2A
100
AcDbVisualStyle
  2
Realistic
 70
     8
177
     2
291
     0
 71
     2
176
     1
 72
     2
176
     1
 73
     0
176
     1
 90
        0
176
     1
 40
-0.6
176
     1
 41
-30.0
176
     1
 62
     5
 63
     7
421
 16777215
176
     1
 74
     1
176
     1
 91
        0
176
     1
 64
     7
176
     1
 65
   257
176
     1
 75
     1
176
     1
175
     1
176
     1
 42
1.0
176
     1
 92
        8
176
     1
 66
     8
424
  7895160
176
     1
 43
1.0
176
     1
 76
     1
176
     1
 77
     6
176
     1
 78
     2
176
     1
 67
     7
176
     1
 79
     5
176
     1
170
     0
176
     1
171
     0
176
     1
290
     0
176
     1
 93
       13
176
     1
 44
0.0
176
     1
173
     0
176
     1
  0
VISUALSTYLE
  5
37
102
{ACAD_REACTORS
330
2A
102
}
330
2A
100
AcDbVisualStyle
  2
Thicken
 70
    13
177
     2
291
     1
 71
     2
176
     1
 72
     2
176
     1
 73
     0
176
     1
 90
        0
176
     1
 40
-0.6
176
     1
 41
-30.0
176
     1
 62
     5
 63
     7
421
 16777215
176
     1
 74
     1
176
     1
 91
        4
176
     1
 64
     7
176
     1
 65
   257
176
     1
 75
     1
176
     1
175
     1
176
     1
 42
1.0
176
     1
 92
       12
176
     1
 66
     7
176
     1
 43
1.0
176
     1
 76
     1
176
     1
 77
     6
176
     1
 78
     2
176
     1
 67
     7
176
     1
 79
     5
176
     1
170
     0
176
     1
171
     0
176
     1
290
     0
176
     1
 93
        1
176
     1
 44
0.0
176
     1
173
     0
176
     1
  0
ENDSEC
  0
EOF
