  0
SECTION
  2
HEADER
  9
$ACADVER
  1
AC1032
  9
$ACADMAINTVER
 90
      251
  9
$DWGCODEPAGE
  3
ANSI_1252
  9
$REQUIREDVERSIONS
160
                 0
  9
$INSBASE
 10
0.0
 20
0.0
 30
0.0
  9
$EXTMIN
 10
1.000000000000000E+20
 20
1.000000000000000E+20
 30
1.000000000000000E+20
  9
$EXTMAX
 10
-1.000000000000000E+20
 20
-1.000000000000000E+20
 30
-1.000000000000000E+20
  9
$LIMMIN
 10
0.0
 20
0.0
  9
$LIMMAX
 10
12.0
 20
9.0
  9
$ORTHOMODE
 70
     0
  9
$REGENMODE
 70
     1
  9
$FILLMODE
 70
     1
  9
$QTEXTMODE
 70
     0
  9
$MIRRTEXT
 70
     0
  9
$LTSCALE
 40
1.0
  9
$ATTMODE
 70
     1
  9
$TEXTSIZE
 40
0.2
  9
$TRACEWID
 40
0.05
  9
$TEXTSTYLE
  7
Standard
  9
$CLAYER
  8
0
  9
$CELTYPE
  6
ByLayer
  9
$CECOLOR
 62
   256
  9
$CELTSCALE
 40
1.0
  9
$DISPSILH
 70
     0
  9
$DIMSCALE
 40
1.0
  9
$DIMASZ
 40
0.18
  9
$DIMEXO
 40
0.0625
  9
$DIMDLI
 40
0.38
  9
$DIMRND
 40
0.0
  9
$DIMDLE
 40
0.0
  9
$DIMEXE
 40
0.18
  9
$DIMTP
 40
0.0
  9
$DIMTM
 40
0.0
  9
$DIMTXT
 40
0.18
  9
$DIMCEN
 40
0.09
  9
$DIMTSZ
 40
0.0
  9
$DIMTOL
 70
     0
  9
$DIMLIM
 70
     0
  9
$DIMTIH
 70
     1
  9
$DIMTOH
 70
     1
  9
$DIMSE1
 70
     0
  9
$DIMSE2
 70
     0
  9
$DIMTAD
 70
     0
  9
$DIMZIN
 70
     0
  9
$DIMBLK
  1

  9
$DIMASO
 70
     1
  9
$DIMSHO
 70
     1
  9
$DIMPOST
  1

  9
$DIMAPOST
  1

  9
$DIMALT
 70
     0
  9
$DIMALTD
 70
     2
  9
$DIMALTF
 40
25.4
  9
$DIMLFAC
 40
1.0
  9
$DIMTOFL
 70
     0
  9
$DIMTVP
 40
0.0
  9
$DIMTIX
 70
     0
  9
$DIMSOXD
 70
     0
  9
$DIMSAH
 70
     0
  9
$DIMBLK1
  1

  9
$DIMBLK2
  1

  9
$DIMSTYLE
  2
Standard
  9
$DIMCLRD
 70
     0
  9
$DIMCLRE
 70
     0
  9
$DIMCLRT
 70
     0
  9
$DIMTFAC
 40
1.0
  9
$DIMGAP
 40
0.09
  9
$DIMJUST
 70
     0
  9
$DIMSD1
 70
     0
  9
$DIMSD2
 70
     0
  9
$DIMTOLJ
 70
     1
  9
$DIMTZIN
 70
     0
  9
$DIMALTZ
 70
     0
  9
$DIMALTTZ
 70
     0
  9
$DIMUPT
 70
     0
  9
$DIMDEC
 70
     4
  9
$DIMTDEC
 70
     4
  9
$DIMALTU
 70
     2
  9
$DIMALTTD
 70
     2
  9
$DIMTXSTY
  7
Standard
  9
$DIMAUNIT
 70
     0
  9
$DIMADEC
 70
     0
  9
$DIMALTRND
 40
0.0
  9
$DIMAZIN
 70
     0
  9
$DIMDSEP
 70
    46
  9
$DIMATFIT
 70
     3
  9
$DIMFRAC
 70
     0
  9
$DIMLDRBLK
  1

  9
$DIMLUNIT
 70
     2
  9
$DIMLWD
 70
    -2
  9
$DIMLWE
 70
    -2
  9
$DIMTMOVE
 70
     0
  9
$DIMFXL
 40
1.0
  9
$DIMFXLON
 70
     0
  9
$DIMJOGANG
 40
0.7853981633974483
  9
$DIMTFILL
 70
     0
  9
$DIMTFILLCLR
 70
     0
  9
$DIMARCSYM
 70
     0
  9
$DIMLTYPE
  6

  9
$DIMLTEX1
  6

  9
$DIMLTEX2
  6

  9
$DIMTXTDIRECTION
 70
     0
  9
$LUNITS
 70
     2
  9
$LUPREC
 70
     4
  9
$SKETCHINC
 40
0.1
  9
$FILLETRAD
 40
0.0
  9
$AUNITS
 70
     0
  9
$AUPREC
 70
     0
  9
$MENU
  1
.
  9
$ELEVATION
 40
0.0
  9
$PELEVATION
 40
0.0
  9
$THICKNESS
 40
0.0
  9
$LIMCHECK
 70
     0
  9
$CHAMFERA
 40
0.0
  9
$CHAMFERB
 40
0.0
  9
$CHAMFERC
 40
0.0
  9
$CHAMFERD
 40
0.0
  9
$SKPOLY
 70
     0
  9
$TDCREATE
 40
2460993.407824074
  9
$TDUCREATE
 40
2460993.366157408
  9
$TDUPDATE
 40
2460993.407824074
  9
$TDUUPDATE
 40
2460993.366157408
  9
$TDINDWG
 40
0.0000000000
  9
$TDUSRTIMER
 40
0.0000000000
  9
$USRTIMER
 70
     1
  9
$ANGBASE
 50
0.0
  9
$ANGDIR
 70
     0
  9
$PDMODE
 70
     0
  9
$PDSIZE
 40
0.0
  9
$PLINEWID
 40
0.0
  9
$SPLFRAME
 70
     0
  9
$SPLINETYPE
 70
     6
  9
$SPLINESEGS
 70
     8
  9
$HANDSEED
  5
A0
  9
$SURFTAB1
 70
     6
  9
$SURFTAB2
 70
     6
  9
$SURFTYPE
 70
     6
  9
$SURFU
 70
     6
  9
$SURFV
 70
     6
  9
$UCSBASE
  2

  9
$UCSNAME
  2

  9
$UCSORG
 10
0.0
 20
0.0
 30
0.0
  9
$UCSXDIR
 10
1.0
 20
0.0
 30
0.0
  9
$UCSYDIR
 10
0.0
 20
1.0
 30
0.0
  9
$UCSORTHOREF
  2

  9
$UCSORTHOVIEW
 70
     0
  9
$UCSORGTOP
 10
0.0
 20
0.0
 30
0.0
  9
$UCSORGBOTTOM
 10
0.0
 20
0.0
 30
0.0
  9
$UCSORGLEFT
 10
0.0
 20
0.0
 30
0.0
  9
$UCSORGRIGHT
 10
0.0
 20
0.0
 30
0.0
  9
$UCSORGFRONT
 10
0.0
 20
0.0
 30
0.0
  9
$UCSORGBACK
 10
0.0
 20
0.0
 30
0.0
  9
$PUCSBASE
  2

  9
$PUCSNAME
  2

  9
$PUCSORG
 10
0.0
 20
0.0
 30
0.0
  9
$PUCSXDIR
 10
1.0
 20
0.0
 30
0.0
  9
$PUCSYDIR
 10
0.0
 20
1.0
 30
0.0
  9
$PUCSORTHOREF
  2

  9
$PUCSORTHOVIEW
 70
     0
  9
$PUCSORGTOP
 10
0.0
 20
0.0
 30
0.0
  9
$PUCSORGBOTTOM
 10
0.0
 20
0.0
 30
0.0
  9
$PUCSORGLEFT
 10
0.0
 20
0.0
 30
0.0
  9
$PUCSORGRIGHT
 10
0.0
 20
0.0
 30
0.0
  9
$PUCSORGFRONT
 10
0.0
 20
0.0
 30
0.0
  9
$PUCSORGBACK
 10
0.0
 20
0.0
 30
0.0
  9
$USERI1
 70
     0
  9
$USERI2
 70
     0
  9
$USERI3
 70
     0
  9
$USERI4
 70
     0
  9
$USERI5
 70
     0
  9
$USERR1
 40
0.0
  9
$USERR2
 40
0.0
  9
$USERR3
 40
0.0
  9
$USERR4
 40
0.0
  9
$USERR5
 40
0.0
  9
$WORLDVIEW
 70
     1
  9
$SHADEDGE
 70
     3
  9
$SHADEDIF
 70
    70
  9
$TILEMODE
 70
     1
  9
$MAXACTVP
 70
    64
  9
$PINSBASE
 10
0.0
 20
0.0
 30
0.0
  9
$PLIMCHECK
 70
     0
  9
$PEXTMIN
 10
1.000000000000000E+20
 20
1.000000000000000E+20
 30
1.000000000000000E+20
  9
$PEXTMAX
 10
-1.000000000000000E+20
 20
-1.000000000000000E+20
 30
-1.000000000000000E+20
  9
$PLIMMIN
 10
0.0
 20
0.0
  9
$PLIMMAX
 10
12.0
 20
9.0
  9
$UNITMODE
 70
     0
  9
$VISRETAIN
 70
     1
  9
$PLINEGEN
 70
     0
  9
$PSLTSCALE
 70
     1
  9
$TREEDEPTH
 70
  3020
  9
$CMLSTYLE
  2
Standard
  9
$CMLJUST
 70
     0
  9
$CMLSCALE
 40
1.0
  9
$PROXYGRAPHICS
 70
     1
  9
$MEASUREMENT
 70
     0
  9
$CELWEIGHT
370
    -1
  9
$ENDCAPS
280
     0
  9
$JOINSTYLE
280
     0
  9
$LWDISPLAY
290
     1
  9
$INSUNITS
 70
     4
  9
$HYPERLINKBASE
  1

  9
$STYLESHEET
  1

  9
$XEDIT
290
     1
  9
$CEPSNTYPE
380
     0
  9
$PSTYLEMODE
290
     1
  9
$FINGERPRINTGUID
  2
{93C8D8A1-1B9B-9242-B94F-2ECD1646AD13}
  9
$VERSIONGUID
  2
{B073EF76-5D75-CB43-B880-8F8E1D851735}
  9
$EXTNAMES
290
     1
  9
$PSVPSCALE
 40
0.0
  9
$OLESTARTUP
290
     0
  9
$SORTENTS
280
   127
  9
$INDEXCTL
280
     0
  9
$HIDETEXT
280
     1
  9
$XCLIPFRAME
280
     2
  9
$HALOGAP
280
     0
  9
$OBSCOLOR
 70
   257
  9
$OBSLTYPE
280
     0
  9
$INTERSECTIONDISPLAY
280
     0
  9
$INTERSECTIONCOLOR
 70
   257
  9
$DIMASSOC
280
     2
  9
$PROJECTNAME
  1

  9
$CAMERADISPLAY
290
     0
  9
$LENSLENGTH
 40
50.0
  9
$CAMERAHEIGHT
 40
0.0
  9
$STEPSPERSEC
 40
2.0
  9
$STEPSIZE
 40
6.0
  9
$3DDWFPREC
 40
2.0
  9
$PSOLWIDTH
 40
0.25
  9
$PSOLHEIGHT
 40
4.0
  9
$LOFTANG1
 40
1.570796326794896
  9
$LOFTANG2
 40
1.570796326794896
  9
$LOFTMAG1
 40
0.0
  9
$LOFTMAG2
 40
0.0
  9
$LOFTPARAM
 70
     7
  9
$LOFTNORMALS
280
     1
  9
$LATITUDE
 40
37.795
  9
$LONGITUDE
 40
-122.394
  9
$NORTHDIRECTION
 40
0.0
  9
$TIMEZONE
 70
 -8000
  9
$LIGHTGLYPHDISPLAY
280
     1
  9
$TILEMODELIGHTSYNCH
280
     1
  9
$CMATERIAL
347
11
  9
$SOLIDHIST
280
     0
  9
$SHOWHIST
280
     1
  9
$DWFFRAME
280
     2
  9
$DGNFRAME
280
     0
  9
$REALWORLDSCALE
290
     1
  9
$INTERFERECOLOR
 62
     1
  9
$INTERFEREOBJVS
345
33
  9
$INTERFEREVPVS
346
30
  9
$CSHADOW
280
     0
  9
$SHADOWPLANELOCATION
 40
0.0
  0
ENDSEC
  0
SECTION
  2
CLASSES
  0
CLASS
  1
ACDBDICTIONARYWDFLT
  2
AcDbDictionaryWithDefault
  3
ObjectDBX Classes
 90
        0
 91
        1
280
     0
281
     0
  0
CLASS
  1
MATERIAL
  2
AcDbMaterial
  3
ObjectDBX Classes
 90
     1153
 91
        3
280
     0
281
     0
  0
CLASS
  1
VISUALSTYLE
  2
AcDbVisualStyle
  3
ObjectDBX Classes
 90
     4095
 91
       24
280
     0
281
     0
  0
CLASS
  1
SCALE
  2
AcDbScale
  3
ObjectDBX Classes
 90
     1153
 91
       17
280
     0
281
     0
  0
CLASS
  1
TABLESTYLE
  2
AcDbTableStyle
  3
ObjectDBX Classes
 90
     4095
 91
        1
280
     0
281
     0
  0
CLASS
  1
MLEADERSTYLE
  2
AcDbMLeaderStyle
  3
ACDB_MLEADERSTYLE_CLASS
 90
     4095
 91
        1
280
     0
281
     0
  0
CLASS
  1
ACDBSECTIONVIEWSTYLE
  2
AcDbSectionViewStyle
  3
ObjectDBX Classes
 90
     1025
 91
        1
280
     0
281
     0
  0
CLASS
  1
ACDBDETAILVIEWSTYLE
  2
AcDbDetailViewStyle
  3
ObjectDBX Classes
 90
     1025
 91
        1
280
     0
281
     0
  0
CLASS
  1
DICTIONARYVAR
  2
AcDbDictionaryVar
  3
ObjectDBX Classes
 90
        0
 91
        5
280
     0
281
     0
  0
CLASS
  1
CELLSTYLEMAP
  2
AcDbCellStyleMap
  3
ObjectDBX Classes
 90
     1152
 91
        1
280
     0
281
     0
  0
ENDSEC
  0
SECTION
  2
TABLES
  0
TABLE
  2
VPORT
  5
8
330
0
100
AcDbSymbolTable
 70
     1
  0
VPORT
  5
57
330
8
100
AcDbSymbolTableRecord
100
AcDbViewportTableRecord
  2
*Active
 70
     0
 10
0.0
 20
0.0
 11
1.0
 21
1.0
 12
0.0
 22
0.0
 13
0.0
 23
0.0
 14
1.0
 24
1.0
 15
0.0
 25
0.0
 16
0.0
 26
0.0
 36
1.0
 17
112.1515195478492
 27
164.2484285181199
 37
0.0
 40
140.6545299723524
 41
2.866669675094023
 42
50.0
 43
0.0
 44
0.0
 50
0.0
 51
0.0
 71
     0
 72
   100
 73
     1
 74
     1
 75
     0
 76
     0
 77
     0
 78
     0
281
     0
 65
     1
110
0.0
120
0.0
130
0.0
111
1.0
121
0.0
131
0.0
112
0.0
122
1.0
132
0.0
 79
     0
146
0.0
 60
     3
 61
     5
292
     1
282
     1
141
0.0
142
0.0
 63
   250
421
  3355443
  0
ENDTAB
  0
TABLE
  2
LTYPE
  5
5
330
0
100
AcDbSymbolTable
 70
     1
  0
LTYPE
  5
5B
330
5
100
AcDbSymbolTableRecord
100
AcDbLinetypeTableRecord
  2
ByBlock
 70
     0
  3

 72
    65
 73
     0
 40
0.0
  0
LTYPE
  5
5C
330
5
100
AcDbSymbolTableRecord
100
AcDbLinetypeTableRecord
  2
ByLayer
 70
     0
  3

 72
    65
 73
     0
 40
0.0
  0
LTYPE
  5
5D
330
5
100
AcDbSymbolTableRecord
100
AcDbLinetypeTableRecord
  2
Continuous
 70
     0
  3
Solid line
 72
    65
 73
     0
 40
0.0
  0
ENDTAB
  0
TABLE
  2
LAYER
  5
2
330
0
100
AcDbSymbolTable
 70
     5
  0
LAYER
  5
54
330
2
100
AcDbSymbolTableRecord
100
AcDbLayerTableRecord
  2
0
 70
     0
 62
     7
  6
Continuous
370
    -3
390
F
347
21
348
0
  0
LAYER
  5
78
330
2
100
AcDbSymbolTableRecord
100
AcDbLayerTableRecord
  2
Calque 14
 70
     0
 62
     7
  6
Continuous
370
     0
390
F
347
21
348
0
  0
LAYER
  5
79
330
2
100
AcDbSymbolTableRecord
100
AcDbLayerTableRecord
  2
Calque 4
 70
     0
 62
     7
  6
Continuous
370
     0
390
F
347
21
348
0
  0
LAYER
  5
95
330
2
100
AcDbSymbolTableRecord
100
AcDbLayerTableRecord
  2
Calque 5
 70
     1
 62
     7
  6
Continuous
370
     0
390
F
347
21
348
0
  0
LAYER
  5
96
330
2
100
AcDbSymbolTableRecord
100
AcDbLayerTableRecord
  2
Calque 6
 70
     0
 62
     7
  6
Continuous
370
     0
390
F
347
21
348
0
  0
ENDTAB
  0
TABLE
  2
STYLE
  5
3
330
0
100
AcDbSymbolTable
 70
     2
  0
STYLE
  5
55
330
3
100
AcDbSymbolTableRecord
100
AcDbTextStyleTableRecord
  2
Standard
 70
     0
 40
0.0
 41
1.0
 50
0.0
 71
     0
 42
0.2
  3
txt
  4

  0
STYLE
  5
5A
330
3
100
AcDbSymbolTableRecord
100
AcDbTextStyleTableRecord
  2
Annotative
 70
     0
 40
0.0
 41
1.0
 50
0.0
 71
     0
 42
0.2
  3
txt
  4

1001
AcadAnnotative
1000
AnnotativeData
1002
{
1070
     1
1070
     1
1002
}
  0
ENDTAB
  0
TABLE
  2
VIEW
  5
6
330
0
100
AcDbSymbolTable
 70
     0
  0
ENDTAB
  0
TABLE
  2
UCS
  5
7
330
0
100
AcDbSymbolTable
 70
     0
  0
ENDTAB
  0
TABLE
  2
APPID
  5
9
330
0
100
AcDbSymbolTable
 70
     2
  0
APPID
  5
56
330
9
100
AcDbSymbolTableRecord
100
AcDbRegAppTableRecord
  2
ACAD
 70
     0
  0
APPID
  5
5E
330
9
100
AcDbSymbolTableRecord
100
AcDbRegAppTableRecord
  2
AcadAnnotative
 70
     0
  0
ENDTAB
  0
TABLE
  2
DIMSTYLE
  5
A
330
0
100
AcDbSymbolTable
 70
     2
100
AcDbDimStyleTable
 71
     0
  0
DIMSTYLE
105
58
330
A
100
AcDbSymbolTableRecord
100
AcDbDimStyleTableRecord
  2
Standard
 70
     0
340
55
  0
DIMSTYLE
105
59
330
A
100
AcDbSymbolTableRecord
100
AcDbDimStyleTableRecord
  2
Annotative
 70
     0
340
55
1001
AcadAnnotative
1000
AnnotativeData
1002
{
1070
     1
1070
     1
1002
}
  0
ENDTAB
  0
TABLE
  2
BLOCK_RECORD
  5
1
330
0
100
AcDbSymbolTable
 70
     4
  0
BLOCK_RECORD
  5
70
330
1
100
AcDbSymbolTableRecord
100
AcDbBlockTableRecord
  2
*Model_Space
340
73
 70
     0
280
     1
281
     0
  0
BLOCK_RECORD
  5
6C
330
1
100
AcDbSymbolTableRecord
100
AcDbBlockTableRecord
  2
*Paper_Space
340
6F
 70
     0
280
     1
281
     0
  0
BLOCK_RECORD
  5
74
330
1
100
AcDbSymbolTableRecord
100
AcDbBlockTableRecord
  2
*Paper_Space0
340
77
 70
     0
280
     1
281
     0
  0
BLOCK_RECORD
  5
7A
330
1
100
AcDbSymbolTableRecord
100
AcDbBlockTableRecord
  2
Block_0
340
0
102
{BLKREFS
331
7B
102
}
 70
     0
280
     1
281
     0
  0
BLOCK_RECORD
  5
7E
330
1
100
AcDbSymbolTableRecord
100
AcDbBlockTableRecord
  2
Block_1
340
0
102
{BLKREFS
331
7F
102
}
 70
     0
280
     1
281
     0
  0
BLOCK_RECORD
  5
8A
330
1
100
AcDbSymbolTableRecord
100
AcDbBlockTableRecord
  2
Block_2
340
0
102
{BLKREFS
331
8B
102
}
 70
     0
280
     1
281
     0
  0
ENDTAB
  0
ENDSEC
  0
SECTION
  2
BLOCKS
  0
BLOCK
  5
71
330
70
100
AcDbEntity
  8
0
100
AcDbBlockBegin
  2
*Model_Space
 70
     0
 10
0.0
 20
0.0
 30
0.0
  3
*Model_Space
  1

  0
ENDBLK
  5
72
330
70
100
AcDbEntity
  8
0
100
AcDbBlockEnd
  0
BLOCK
  5
6D
330
6C
100
AcDbEntity
 67
     1
  8
0
100
AcDbBlockBegin
  2
*Paper_Space
 70
     0
 10
0.0
 20
0.0
 30
0.0
  3
*Paper_Space
  1

  0
ENDBLK
  5
6E
330
6C
100
AcDbEntity
 67
     1
  8
0
100
AcDbBlockEnd
  0
BLOCK
  5
75
330
74
100
AcDbEntity
 67
     1
  8
0
100
AcDbBlockBegin
  2
*Paper_Space0
 70
     0
 10
0.0
 20
0.0
 30
0.0
  3
*Paper_Space0
  1

  0
ENDBLK
  5
76
330
74
100
AcDbEntity
 67
     1
  8
0
100
AcDbBlockEnd
  0
BLOCK
  5
7C
330
7A
100
AcDbEntity
  8
0
100
AcDbBlockBegin
  2
Block_0
 70
     0
 10
0.0
 20
0.0
 30
0.0
  3
Block_0
  1

  0
INSERT
  5
7F
330
7A
100
AcDbEntity
  8
Calque 4
100
AcDbBlockReference
  2
Block_1
 10
0.0
 20
0.0
 30
0.0
  0
ENDBLK
  5
7D
330
7A
100
AcDbEntity
  8
0
100
AcDbBlockEnd
  0
BLOCK
  5
80
330
7E
100
AcDbEntity
  8
0
100
AcDbBlockBegin
  2
Block_1
 70
     0
 10
0.0
 20
0.0
 30
0.0
  3
Block_1
  1

  0
SPLINE
  5
82
330
7E
100
AcDbEntity
  8
Calque 4
100
AcDbSpline
210
0.0
220
0.0
230
1.0
 70
     9
 71
     3
 72
    41
 73
    37
 74
     0
 42
0.0000000001
 43
0.0000000001
 40
0.0
 40
0.0
 40
0.0
 40
0.0
 40
1.0
 40
1.0
 40
1.0
 40
2.0
 40
2.0
 40
2.0
 40
3.0
 40
3.0
 40
3.0
 40
4.0
 40
4.0
 40
4.0
 40
5.0
 40
5.0
 40
5.0
 40
6.0
 40
6.0
 40
6.0
 40
7.0
 40
7.0
 40
7.0
 40
8.0
 40
8.0
 40
8.0
 40
9.0
 40
9.0
 40
9.0
 40
10.0
 40
10.0
 40
10.0
 40
11.0
 40
11.0
 40
11.0
 40
12.0
 40
12.0
 40
12.0
 40
12.0
 10
79.64439287815072
 20
184.2213969694055
 30
0.0
 10
79.64439287815072
 20
184.2213969694055
 30
0.0
 10
75.56425116902584
 20
184.2213969694055
 30
0.0
 10
75.56425116902584
 20
184.2213969694055
 30
0.0
 10
74.17648854039024
 20
184.2213969694055
 30
0.0
 10
73.05148464947173
 20
183.096393078486
 30
0.0
 10
73.05148464947173
 20
181.7086304498514
 30
0.0
 10
73.05148464947173
 20
181.7086304498514
 30
0.0
 10
73.05148464947173
 20
180.5800171688835
 30
0.0
 10
73.05148464947173
 20
180.5800171688835
 30
0.0
 10
73.05148464947173
 20
179.1922545402476
 30
0.0
 10
71.92648075855259
 20
178.0672506493295
 30
0.0
 10
70.53871812991762
 20
178.0672506493295
 30
0.0
 10
70.53871812991762
 20
178.0672506493295
 30
0.0
 10
59.49351262060163
 20
178.0672506493295
 30
0.0
 10
59.49351262060163
 20
178.0672506493295
 30
0.0
 10
58.10574999196636
 20
178.0672506493295
 30
0.0
 10
56.98074610104754
 20
179.1922545402476
 30
0.0
 10
56.98074610104754
 20
180.5800171688835
 30
0.0
 10
56.98074610104754
 20
180.5800171688835
 30
0.0
 10
56.98074610104754
 20
196.9238946604573
 30
0.0
 10
56.98074610104754
 20
196.9238946604573
 30
0.0
 10
56.98074610104754
 20
198.3116572890929
 30
0.0
 10
58.10574999196636
 20
199.4366611800114
 30
0.0
 10
59.49351262060163
 20
199.4366611800114
 30
0.0
 10
59.49351262060163
 20
199.4366611800114
 30
0.0
 10
78.30676106910718
 20
199.4366611800114
 30
0.0
 10
78.30676106910718
 20
199.4366611800114
 30
0.0
 10
79.5681046590445
 20
199.4366611800114
 30
0.0
 10
80.63398515924921
 20
198.5015560496889
 30
0.0
 10
80.7981553561609
 20
197.2509418812411
 30
0.0
 10
80.7981553561609
 20
197.2509418812411
 30
0.0
 10
82.13577891932237
 20
187.0612057926671
 30
0.0
 10
82.13577891932237
 20
187.0612057926671
 30
0.0
 10
82.33330798779956
 20
185.5564707289033
 30
0.0
 10
81.16203754835929
 20
184.2213969694055
 30
0.0
 10
79.64439287815072
 20
184.2213969694055
 30
0.0
  0
SPLINE
  5
83
330
7E
100
AcDbEntity
  8
Calque 4
100
AcDbSpline
210
0.0
220
0.0
230
1.0
 70
     9
 71
     3
 72
    44
 73
    40
 74
     0
 42
0.0000000001
 43
0.0000000001
 40
0.0
 40
0.0
 40
0.0
 40
0.0
 40
1.0
 40
1.0
 40
1.0
 40
2.0
 40
2.0
 40
2.0
 40
3.0
 40
3.0
 40
3.0
 40
4.0
 40
4.0
 40
4.0
 40
5.0
 40
5.0
 40
5.0
 40
6.0
 40
6.0
 40
6.0
 40
7.0
 40
7.0
 40
7.0
 40
8.0
 40
8.0
 40
8.0
 40
9.0
 40
9.0
 40
9.0
 40
10.0
 40
10.0
 40
10.0
 40
11.0
 40
11.0
 40
11.0
 40
12.0
 40
12.0
 40
12.0
 40
13.0
 40
13.0
 40
13.0
 40
13.0
 10
52.39463499108295
 20
180.5800171688835
 30
0.0
 10
52.39463499108295
 20
179.1922545402476
 30
0.0
 10
51.2696311001638
 20
178.0672506493295
 30
0.0
 10
49.88186847152885
 20
178.0672506493295
 30
0.0
 10
49.88186847152885
 20
178.0672506493295
 30
0.0
 10
36.50845996657142
 20
178.0672506493295
 30
0.0
 10
36.50845996657142
 20
178.0672506493295
 30
0.0
 10
36.50845996657142
 20
178.0672506493295
 30
0.0
 10
32.0617029689852
 20
178.0672506493295
 30
0.0
 10
32.0617029689852
 20
178.0672506493295
 30
0.0
 10
32.0617029689852
 20
178.0672506493295
 30
0.0
 10
23.08959248516373
 20
178.0672506493295
 30
0.0
 10
23.08959248516373
 20
178.0672506493295
 30
0.0
 10
22.59712397184365
 20
178.0672506493295
 30
0.0
 10
22.19789936223891
 20
178.4664752589342
 30
0.0
 10
22.19789936223891
 20
178.9589437722543
 30
0.0
 10
22.19789936223891
 20
178.9589437722543
 30
0.0
 10
22.19789936223891
 20
178.958945339472
 30
0.0
 10
22.19789936223891
 20
178.958945339472
 30
0.0
 10
22.19789936223891
 20
179.3467633144492
 30
0.0
 10
22.45093011405091
 20
179.6835180775631
 30
0.0
 10
22.8189087307136
 20
179.8059701881818
 30
0.0
 10
25.01564986509827
 20
180.5369789376265
 30
0.0
 10
26.70492373016121
 20
182.4588605162596
 30
0.0
 10
27.03455504136829
 20
184.8427199401703
 30
0.0
 10
27.03455504136829
 20
184.8427199401703
 30
0.0
 10
28.75290407387056
 20
197.2681242949738
 30
0.0
 10
28.75290407387056
 20
197.2681242949738
 30
0.0
 10
28.92479126948416
 20
198.5110428572176
 30
0.0
 10
29.98722563024206
 20
199.4366611800114
 30
0.0
 10
31.24197331818033
 20
199.4366611800114
 30
0.0
 10
31.24197331818033
 20
199.4366611800114
 30
0.0
 10
49.88186847152885
 20
199.4366611800114
 30
0.0
 10
49.88186847152885
 20
199.4366611800114
 30
0.0
 10
51.2696311001638
 20
199.4366611800114
 30
0.0
 10
52.39463499108295
 20
198.3116572890929
 30
0.0
 10
52.39463499108295
 20
196.9238946604573
 30
0.0
 10
52.39463499108295
 20
196.9238946604573
 30
0.0
 10
52.39463499108295
 20
180.5800171688835
 30
0.0
 10
52.39463499108295
 20
180.5800171688835
 30
0.0
  0
SPLINE
  5
84
330
7E
100
AcDbEntity
  8
Calque 4
100
AcDbSpline
210
0.0
220
0.0
230
1.0
 70
     9
 71
     3
 72
    41
 73
    37
 74
     0
 42
0.0000000001
 43
0.0000000001
 40
0.0
 40
0.0
 40
0.0
 40
0.0
 40
1.0
 40
1.0
 40
1.0
 40
2.0
 40
2.0
 40
2.0
 40
3.0
 40
3.0
 40
3.0
 40
4.0
 40
4.0
 40
4.0
 40
5.0
 40
5.0
 40
5.0
 40
6.0
 40
6.0
 40
6.0
 40
7.0
 40
7.0
 40
7.0
 40
8.0
 40
8.0
 40
8.0
 40
9.0
 40
9.0
 40
9.0
 40
10.0
 40
10.0
 40
10.0
 40
11.0
 40
11.0
 40
11.0
 40
12.0
 40
12.0
 40
12.0
 40
12.0
 10
-15.84607476290722
 20
178.0672506493295
 30
0.0
 10
-17.23383739154249
 20
178.0672506493295
 30
0.0
 10
-18.35884128246132
 20
179.1922545402476
 30
0.0
 10
-18.35884128246132
 20
180.5800171688835
 30
0.0
 10
-18.35884128246132
 20
180.5800171688835
 30
0.0
 10
-18.35884128246132
 20
196.9238946604573
 30
0.0
 10
-18.35884128246132
 20
196.9238946604573
 30
0.0
 10
-18.35884128246132
 20
198.3116572890929
 30
0.0
 10
-17.23383739154249
 20
199.4366611800114
 30
0.0
 10
-15.84607476290722
 20
199.4366611800114
 30
0.0
 10
-15.84607476290722
 20
199.4366611800114
 30
0.0
 10
3.204872633588725
 20
199.4366611800114
 30
0.0
 10
3.204872633588725
 20
199.4366611800114
 30
0.0
 10
4.459630055255024
 20
199.4366611800114
 30
0.0
 10
5.522071234130669
 20
198.5110325898989
 30
0.0
 10
5.693954007373316
 20
197.2681035897194
 30
0.0
 10
5.693954007373316
 20
197.2681035897194
 30
0.0
 10
7.412238558643655
 20
184.8427414720171
 30
0.0
 10
7.412238558643655
 20
184.8427414720171
 30
0.0
 10
7.739664603053414
 20
182.4750431204149
 30
0.0
 10
9.408508825282821
 20
180.5635016640018
 30
0.0
 10
11.58345772412782
 20
179.8214305863201
 30
0.0
 10
11.94809441912642
 20
179.6970201482805
 30
0.0
 10
12.19790682459133
 20
179.3617717018259
 30
0.0
 10
12.19790682459133
 20
178.9764953381172
 30
0.0
 10
12.19790682459133
 20
178.9764953381172
 30
0.0
 10
12.19790682459133
 20
178.9589437722543
 30
0.0
 10
12.19790682459133
 20
178.9589437722543
 30
0.0
 10
12.19790682459133
 20
178.4664752589342
 30
0.0
 10
11.79868221498659
 20
178.0672506493295
 30
0.0
 10
11.30621370166651
 20
178.0672506493295
 30
0.0
 10
11.30621370166651
 20
178.0672506493295
 30
0.0
 10
-12.84266205071319
 20
178.0672506493295
 30
0.0
 10
-12.84266205071319
 20
178.0672506493295
 30
0.0
 10
-12.84266205071319
 20
178.0672506493295
 30
0.0
 10
-15.84607476290722
 20
178.0672506493295
 30
0.0
 10
-15.84607476290722
 20
178.0672506493295
 30
0.0
  0
SPLINE
  5
85
330
7E
100
AcDbEntity
  8
Calque 4
100
AcDbSpline
210
0.0
220
0.0
230
1.0
 70
     9
 71
     3
 72
    44
 73
    40
 74
     0
 42
0.0000000001
 43
0.0000000001
 40
0.0
 40
0.0
 40
0.0
 40
0.0
 40
1.0
 40
1.0
 40
1.0
 40
2.0
 40
2.0
 40
2.0
 40
3.0
 40
3.0
 40
3.0
 40
4.0
 40
4.0
 40
4.0
 40
5.0
 40
5.0
 40
5.0
 40
6.0
 40
6.0
 40
6.0
 40
7.0
 40
7.0
 40
7.0
 40
8.0
 40
8.0
 40
8.0
 40
9.0
 40
9.0
 40
9.0
 40
10.0
 40
10.0
 40
10.0
 40
11.0
 40
11.0
 40
11.0
 40
12.0
 40
12.0
 40
12.0
 40
13.0
 40
13.0
 40
13.0
 40
13.0
 10
-22.94495239242591
 20
180.5800171688835
 30
0.0
 10
-22.94495239242591
 20
179.1922545402476
 30
0.0
 10
-24.06995628334473
 20
178.0672506493295
 30
0.0
 10
-25.45771891198
 20
178.0672506493295
 30
0.0
 10
-25.45771891198
 20
178.0672506493295
 30
0.0
 10
-37.22928971659602
 20
178.0672506493295
 30
0.0
 10
-37.22928971659602
 20
178.0672506493295
 30
0.0
 10
-38.6170523452313
 20
178.0672506493295
 30
0.0
 10
-39.74205623615013
 20
179.1922545402476
 30
0.0
 10
-39.74205623615013
 20
180.5800171688835
 30
0.0
 10
-39.74205623615013
 20
180.5800171688835
 30
0.0
 10
-39.74205623615013
 20
185.7127681995492
 30
0.0
 10
-39.74205623615013
 20
185.7127681995492
 30
0.0
 10
-39.74205623615013
 20
187.3378119872745
 30
0.0
 10
-41.05941451225735
 20
188.6551702633817
 30
0.0
 10
-42.68445829998232
 20
188.6551702633817
 30
0.0
 10
-42.68445829998232
 20
188.6551702633817
 30
0.0
 10
-44.80300665399698
 20
188.6551702633817
 30
0.0
 10
-44.80300665399698
 20
188.6551702633817
 30
0.0
 10
-44.80300665399698
 20
188.6551702633817
 30
0.0
 10
-44.99033197892834
 20
188.6551702633817
 30
0.0
 10
-44.99033197892834
 20
188.6551702633817
 30
0.0
 10
-46.51495097033622
 20
188.6551702633817
 30
0.0
 10
-47.68827217382528
 20
190.0019207959555
 30
0.0
 10
-47.47941520910044
 20
191.5121664174519
 30
0.0
 10
-47.47941520910044
 20
191.5121664174519
 30
0.0
 10
-46.68340436538669
 20
197.2681242949738
 30
0.0
 10
-46.68340436538669
 20
197.2681242949738
 30
0.0
 10
-46.51151695502849
 20
198.5110429078432
 30
0.0
 10
-45.44908247647647
 20
199.4366611800114
 30
0.0
 10
-44.19433470897201
 20
199.4366611800114
 30
0.0
 10
-44.19433470897201
 20
199.4366611800114
 30
0.0
 10
-25.45771891198
 20
199.4366611800114
 30
0.0
 10
-25.45771891198
 20
199.4366611800114
 30
0.0
 10
-24.06995628334473
 20
199.4366611800114
 30
0.0
 10
-22.94495239242591
 20
198.3116572890923
 30
0.0
 10
-22.94495239242591
 20
196.9238946604573
 30
0.0
 10
-22.94495239242591
 20
196.9238946604573
 30
0.0
 10
-22.94495239242591
 20
180.5800171688835
 30
0.0
 10
-22.94495239242591
 20
180.5800171688835
 30
0.0
  0
SPLINE
  5
86
330
7E
100
AcDbEntity
  8
Calque 4
100
AcDbSpline
210
0.0
220
0.0
230
1.0
 70
     9
 71
     3
 72
    11
 73
     7
 74
     0
 42
0.0000000001
 43
0.0000000001
 40
0.0
 40
0.0
 40
0.0
 40
0.0
 40
1.0
 40
1.0
 40
1.0
 40
2.0
 40
2.0
 40
2.0
 40
2.0
 10
-39.97386809861387
 20
178.0672506493295
 30
0.0
 10
-39.95050604485452
 20
178.1499544728222
 30
0.0
 10
-39.92882347514424
 20
178.1401359506893
 30
0.0
 10
-39.90886345317657
 20
178.0672506493295
 30
0.0
 10
-39.90886345317657
 20
178.0672506493295
 30
0.0
 10
-39.97386809861387
 20
178.0672506493295
 30
0.0
 10
-39.97386809861387
 20
178.0672506493295
 30
0.0
  0
SPLINE
  5
87
330
7E
100
AcDbEntity
  8
Calque 4
100
AcDbSpline
210
0.0
220
0.0
230
1.0
 70
     9
 71
     3
 72
   248
 73
   244
 74
     0
 42
0.0000000001
 43
0.0000000001
 40
0.0
 40
0.0
 40
0.0
 40
0.0
 40
1.0
 40
1.0
 40
1.0
 40
2.0
 40
2.0
 40
2.0
 40
3.0
 40
3.0
 40
3.0
 40
4.0
 40
4.0
 40
4.0
 40
5.0
 40
5.0
 40
5.0
 40
6.0
 40
6.0
 40
6.0
 40
7.0
 40
7.0
 40
7.0
 40
8.0
 40
8.0
 40
8.0
 40
9.0
 40
9.0
 40
9.0
 40
10.0
 40
10.0
 40
10.0
 40
11.0
 40
11.0
 40
11.0
 40
12.0
 40
12.0
 40
12.0
 40
13.0
 40
13.0
 40
13.0
 40
14.0
 40
14.0
 40
14.0
 40
15.0
 40
15.0
 40
15.0
 40
16.0
 40
16.0
 40
16.0
 40
17.0
 40
17.0
 40
17.0
 40
18.0
 40
18.0
 40
18.0
 40
19.0
 40
19.0
 40
19.0
 40
20.0
 40
20.0
 40
20.0
 40
21.0
 40
21.0
 40
21.0
 40
22.0
 40
22.0
 40
22.0
 40
23.0
 40
23.0
 40
23.0
 40
24.0
 40
24.0
 40
24.0
 40
25.0
 40
25.0
 40
25.0
 40
26.0
 40
26.0
 40
26.0
 40
27.0
 40
27.0
 40
27.0
 40
28.0
 40
28.0
 40
28.0
 40
29.0
 40
29.0
 40
29.0
 40
30.0
 40
30.0
 40
30.0
 40
31.0
 40
31.0
 40
31.0
 40
32.0
 40
32.0
 40
32.0
 40
33.0
 40
33.0
 40
33.0
 40
34.0
 40
34.0
 40
34.0
 40
35.0
 40
35.0
 40
35.0
 40
36.0
 40
36.0
 40
36.0
 40
37.0
 40
37.0
 40
37.0
 40
38.0
 40
38.0
 40
38.0
 40
39.0
 40
39.0
 40
39.0
 40
40.0
 40
40.0
 40
40.0
 40
41.0
 40
41.0
 40
41.0
 40
42.0
 40
42.0
 40
42.0
 40
43.0
 40
43.0
 40
43.0
 40
44.0
 40
44.0
 40
44.0
 40
45.0
 40
45.0
 40
45.0
 40
46.0
 40
46.0
 40
46.0
 40
47.0
 40
47.0
 40
47.0
 40
48.0
 40
48.0
 40
48.0
 40
49.0
 40
49.0
 40
49.0
 40
50.0
 40
50.0
 40
50.0
 40
51.0
 40
51.0
 40
51.0
 40
52.0
 40
52.0
 40
52.0
 40
53.0
 40
53.0
 40
53.0
 40
54.0
 40
54.0
 40
54.0
 40
55.0
 40
55.0
 40
55.0
 40
56.0
 40
56.0
 40
56.0
 40
57.0
 40
57.0
 40
57.0
 40
58.0
 40
58.0
 40
58.0
 40
59.0
 40
59.0
 40
59.0
 40
60.0
 40
60.0
 40
60.0
 40
61.0
 40
61.0
 40
61.0
 40
62.0
 40
62.0
 40
62.0
 40
63.0
 40
63.0
 40
63.0
 40
64.0
 40
64.0
 40
64.0
 40
65.0
 40
65.0
 40
65.0
 40
66.0
 40
66.0
 40
66.0
 40
67.0
 40
67.0
 40
67.0
 40
68.0
 40
68.0
 40
68.0
 40
69.0
 40
69.0
 40
69.0
 40
70.0
 40
70.0
 40
70.0
 40
71.0
 40
71.0
 40
71.0
 40
72.0
 40
72.0
 40
72.0
 40
73.0
 40
73.0
 40
73.0
 40
74.0
 40
74.0
 40
74.0
 40
75.0
 40
75.0
 40
75.0
 40
76.0
 40
76.0
 40
76.0
 40
77.0
 40
77.0
 40
77.0
 40
78.0
 40
78.0
 40
78.0
 40
79.0
 40
79.0
 40
79.0
 40
80.0
 40
80.0
 40
80.0
 40
81.0
 40
81.0
 40
81.0
 40
81.0
 10
105.9213478276254
 20
184.0690591534171
 30
0.0
 10
105.9213478276254
 20
184.0690591534171
 30
0.0
 10
97.41501360124715
 20
184.0690591534171
 30
0.0
 10
97.41501360124715
 20
184.0690591534171
 30
0.0
 10
97.41501360124715
 20
184.0690591534171
 30
0.0
 10
88.70208720504212
 20
184.0690591534171
 30
0.0
 10
88.70208720504212
 20
184.0690591534171
 30
0.0
 10
87.87950606239837
 20
184.0690591534171
 30
0.0
 10
87.18340298775686
 20
184.6678382806003
 30
0.0
 10
87.07232019020434
 20
185.4709331019056
 30
0.0
 10
87.07232019020434
 20
185.4709331019056
 30
0.0
 10
84.70063033077122
 20
202.6208768096407
 30
0.0
 10
84.70063033077122
 20
202.6208768096407
 30
0.0
 10
84.58952600137191
 20
203.4239716309457
 30
0.0
 10
83.8934229267304
 20
204.022772289976
 30
0.0
 10
83.070906379627
 20
204.022772289976
 30
0.0
 10
83.070906379627
 20
204.022772289976
 30
0.0
 10
56.98074610104754
 20
204.022772289976
 30
0.0
 10
56.98074610104754
 20
204.022772289976
 30
0.0
 10
56.98074610104754
 20
204.022772289976
 30
0.0
 10
52.39463499108295
 20
204.022772289976
 30
0.0
 10
52.39463499108295
 20
204.022772289976
 30
0.0
 10
52.39463499108295
 20
204.022772289976
 30
0.0
 10
26.49317981770806
 20
204.022772289976
 30
0.0
 10
26.49317981770806
 20
204.022772289976
 30
0.0
 10
25.67057714321753
 20
204.022772289976
 30
0.0
 10
24.97447406857602
 20
203.4239716309457
 30
0.0
 10
24.86336973917671
 20
202.6208768096407
 30
0.0
 10
24.86336973917671
 20
202.6208768096407
 30
0.0
 10
22.49167987974359
 20
185.4709331019056
 30
0.0
 10
22.49167987974359
 20
185.4709331019056
 30
0.0
 10
22.38064014588463
 20
184.6678382806003
 30
0.0
 10
21.68453707124312
 20
184.0690591534171
 30
0.0
 10
20.86195592859937
 20
184.0690591534171
 30
0.0
 10
20.86195592859937
 20
184.0690591534171
 30
0.0
 10
13.58490226695292
 20
184.0690591534171
 30
0.0
 10
13.58490226695292
 20
184.0690591534171
 30
0.0
 10
12.76229959246239
 20
184.0690591534171
 30
0.0
 10
12.06619651782087
 20
184.6678382806003
 30
0.0
 10
11.95513525211513
 20
185.4709331019056
 30
0.0
 10
11.95513525211513
 20
185.4709331019056
 30
0.0
 10
9.583445392682017
 20
202.6208768096407
 30
0.0
 10
9.583445392682017
 20
202.6208768096407
 30
0.0
 10
9.472362595129492
 20
203.4239716309457
 30
0.0
 10
8.776259520487979
 20
204.022772289976
 30
0.0
 10
7.953721441537798
 20
204.022772289976
 30
0.0
 10
7.953721441537798
 20
204.022772289976
 30
0.0
 10
-18.35884128246132
 20
204.022772289976
 30
0.0
 10
-18.35884128246132
 20
204.022772289976
 30
0.0
 10
-18.35884128246132
 20
204.022772289976
 30
0.0
 10
-22.94495239242591
 20
204.022772289976
 30
0.0
 10
-22.94495239242591
 20
204.022772289976
 30
0.0
 10
-22.94495239242591
 20
204.022772289976
 30
0.0
 10
-48.94317168524275
 20
204.022772289976
 30
0.0
 10
-48.94317168524275
 20
204.022772289976
 30
0.0
 10
-49.76573129603972
 20
204.022772289976
 30
0.0
 10
-50.46183437068123
 20
203.4239716309457
 30
0.0
 10
-50.57291716823375
 20
202.6208768096407
 30
0.0
 10
-50.57291716823375
 20
202.6208768096407
 30
0.0
 10
-52.88412407005395
 20
185.908589419613
 30
0.0
 10
-52.88412407005395
 20
185.908589419613
 30
0.0
 10
-53.01865504875296
 20
184.9355221998042
 30
0.0
 10
-52.25104471094573
 20
184.0690591534171
 30
0.0
 10
-51.25435705521617
 20
184.0690591534171
 30
0.0
 10
-51.25435705521617
 20
184.0690591534171
 30
0.0
 10
-45.97300665370045
 20
184.0690591534171
 30
0.0
 10
-45.97300665370045
 20
184.0690591534171
 30
0.0
 10
-45.06455650608685
 20
184.0690591534171
 30
0.0
 10
-44.32816734611471
 20
183.3434359168363
 30
0.0
 10
-44.32816734611471
 20
182.4483785779217
 30
0.0
 10
-44.32816734611471
 20
182.4483785779217
 30
0.0
 10
-44.32816734611471
 20
179.7470361442437
 30
0.0
 10
-44.32816734611471
 20
179.7470361442437
 30
0.0
 10
-44.32816734611471
 20
178.8519357416354
 30
0.0
 10
-45.06455650608685
 20
178.1263555687483
 30
0.0
 10
-45.97300665370045
 20
178.1263555687483
 30
0.0
 10
-45.97300665370045
 20
178.1263555687483
 30
0.0
 10
-51.47148419817405
 20
178.1263555687483
 30
0.0
 10
-51.47148419817405
 20
178.1263555687483
 30
0.0
 10
-52.04558782894415
 20
178.1263555687483
 30
0.0
 10
-52.57815652727021
 20
177.8313907996705
 30
0.0
 10
-52.87660945552675
 20
177.3481515623239
 30
0.0
 10
-52.87660945552675
 20
177.3481515623239
 30
0.0
 10
-53.13850130794609
 20
176.92412490363
 30
0.0
 10
-53.13850130794609
 20
176.92412490363
 30
0.0
 10
-53.13850130794609
 20
176.92412490363
 30
0.0
 10
-54.14815113543891
 20
175.2892763729515
 30
0.0
 10
-54.14815113543891
 20
175.2892763729515
 30
0.0
 10
-54.44660406369545
 20
174.8060371356048
 30
0.0
 10
-54.97915123017474
 20
174.5111154302207
 30
0.0
 10
-55.55327639279162
 20
174.5111154302207
 30
0.0
 10
-55.55327639279162
 20
174.5111154302207
 30
0.0
 10
-60.4024420749018
 20
174.5111154302207
 30
0.0
 10
-60.4024420749018
 20
174.5111154302207
 30
0.0
 10
-60.97656723751869
 20
174.5111154302207
 30
0.0
 10
-61.50913593584475
 20
174.8060371356048
 30
0.0
 10
-61.80756733225452
 20
175.2892763729515
 30
0.0
 10
-61.80756733225452
 20
175.2892763729515
 30
0.0
 10
-63.07910901216667
 20
177.3481515623239
 30
0.0
 10
-63.07910901216667
 20
177.3481515623239
 30
0.0
 10
-63.37760500411679
 20
177.8313907996705
 30
0.0
 10
-63.91010910690249
 20
178.1263555687483
 30
0.0
 10
-64.48423426951937
 20
178.1263555687483
 30
0.0
 10
-64.48423426951937
 20
178.1263555687483
 30
0.0
 10
-72.30905811332056
 20
178.1263555687483
 30
0.0
 10
-72.30905811332056
 20
178.1263555687483
 30
0.0
 10
-73.2174436653938
 20
178.1263555687483
 30
0.0
 10
-73.95383282536596
 20
177.4007323321675
 30
0.0
 10
-73.95383282536596
 20
176.505653461406
 30
0.0
 10
-73.95383282536596
 20
176.505653461406
 30
0.0
 10
-73.95383282536596
 20
175.1018201148603
 30
0.0
 10
-73.95383282536596
 20
175.1018201148603
 30
0.0
 10
-73.95383282536596
 20
174.2067412440988
 30
0.0
 10
-73.2174436653938
 20
173.4811395393649
 30
0.0
 10
-72.30905811332056
 20
173.4811395393649
 30
0.0
 10
-72.30905811332056
 20
173.4811395393649
 30
0.0
 10
-67.18191628924427
 20
173.4811395393649
 30
0.0
 10
-67.18191628924427
 20
173.4811395393649
 30
0.0
 10
-66.60783419032094
 20
173.4811395393649
 30
0.0
 10
-66.0752439601481
 20
173.1861963021339
 30
0.0
 10
-65.77683409558511
 20
172.7029570647873
 30
0.0
 10
-65.77683409558511
 20
172.7029570647873
 30
0.0
 10
-64.80172135033193
 20
171.1240913357441
 30
0.0
 10
-64.80172135033193
 20
171.1240913357441
 30
0.0
 10
-64.50326842207539
 20
170.6408305665506
 30
0.0
 10
-63.97072125559611
 20
170.3459088611665
 30
0.0
 10
-63.39663915667279
 20
170.3459088611665
 30
0.0
 10
-63.39663915667279
 20
170.3459088611665
 30
0.0
 10
-53.13850130794609
 20
170.3459088611665
 30
0.0
 10
-53.13850130794609
 20
170.3459088611665
 30
0.0
 10
-53.13850130794609
 20
170.3459088611665
 30
0.0
 10
-52.19256421508362
 20
170.3459088611665
 30
0.0
 10
-52.19256421508362
 20
170.3459088611665
 30
0.0
 10
-51.6184821161603
 20
170.3459088611665
 30
0.0
 10
-51.08589188598745
 20
170.6408305665506
 30
0.0
 10
-50.78748202142447
 20
171.1240913357441
 30
0.0
 10
-50.78748202142447
 20
171.1240913357441
 30
0.0
 10
-49.81236927617128
 20
172.7029570647873
 30
0.0
 10
-49.81236927617128
 20
172.7029570647873
 30
0.0
 10
-49.51391634791473
 20
173.1861963021339
 30
0.0
 10
-48.98136918143546
 20
173.4811395393649
 30
0.0
 10
-48.40728708251214
 20
173.4811395393649
 30
0.0
 10
-48.40728708251214
 20
173.4811395393649
 30
0.0
 10
-25.341726853361
 20
173.4811395393649
 30
0.0
 10
-25.341726853361
 20
173.4811395393649
 30
0.0
 10
-24.43331976944096
 20
173.4811395393649
 30
0.0
 10
-23.69693060946881
 20
172.7555163027841
 30
0.0
 10
-23.69693060946881
 20
171.8604159001759
 30
0.0
 10
-23.69693060946881
 20
171.8604159001759
 30
0.0
 10
-23.69693060946881
 20
171.6434610119923
 30
0.0
 10
-23.69693060946881
 20
171.6434610119923
 30
0.0
 10
-23.69693060946881
 20
171.0732977091834
 30
0.0
 10
-23.3966690060825
 20
170.5740818415239
 30
0.0
 10
-22.94495239242591
 20
170.2852105850857
 30
0.0
 10
-22.68751763229061
 20
170.1205780845843
 30
0.0
 10
-22.3818730672086
 20
170.02275890465
 30
0.0
 10
-22.05211283372984
 20
170.02275890465
 30
0.0
 10
-22.05211283372984
 20
170.02275890465
 30
0.0
 10
-19.13568878253837
 20
170.02275890465
 30
0.0
 10
-19.13568878253837
 20
170.02275890465
 30
0.0
 10
-18.85306176166719
 20
170.02275890465
 30
0.0
 10
-18.59116990924785
 20
170.0994553428904
 30
0.0
 10
-18.35884128246132
 20
170.2231988663512
 30
0.0
 10
-17.84446699466673
 20
170.4971485529689
 30
0.0
 10
-17.49091407049297
 20
171.0268750475197
 30
0.0
 10
-17.49091407049297
 20
171.6434610119923
 30
0.0
 10
-17.49091407049297
 20
171.6434610119923
 30
0.0
 10
-17.49091407049297
 20
171.8604159001759
 30
0.0
 10
-17.49091407049297
 20
171.8604159001759
 30
0.0
 10
-17.49091407049297
 20
172.7555163027841
 30
0.0
 10
-16.75448184682725
 20
173.4811395393649
 30
0.0
 10
-15.84607476290722
 20
173.4811395393649
 30
0.0
 10
-15.84607476290722
 20
173.4811395393649
 30
0.0
 10
22.55448827680905
 20
173.4811395393649
 30
0.0
 10
22.55448827680905
 20
173.4811395393649
 30
0.0
 10
23.46289536072908
 20
173.4811395393649
 30
0.0
 10
24.19928452070124
 20
172.7555163027841
 30
0.0
 10
24.19928452070124
 20
171.8604159001759
 30
0.0
 10
24.19928452070124
 20
171.8604159001759
 30
0.0
 10
24.19928452070124
 20
171.6434610119923
 30
0.0
 10
24.19928452070124
 20
171.6434610119923
 30
0.0
 10
24.19928452070124
 20
170.7483821412308
 30
0.0
 10
24.93567368067339
 20
170.02275890465
 30
0.0
 10
25.84410229644021
 20
170.02275890465
 30
0.0
 10
25.84410229644021
 20
170.02275890465
 30
0.0
 10
28.77208894935404
 20
170.02275890465
 30
0.0
 10
28.77208894935404
 20
170.02275890465
 30
0.0
 10
29.68049603327408
 20
170.02275890465
 30
0.0
 10
30.41688519324623
 20
170.7483821412308
 30
0.0
 10
30.41688519324623
 20
171.6434610119923
 30
0.0
 10
30.41688519324623
 20
171.6434610119923
 30
0.0
 10
30.41688519324623
 20
171.8604159001759
 30
0.0
 10
30.41688519324623
 20
171.8604159001759
 30
0.0
 10
30.41688519324623
 20
172.7555163027841
 30
0.0
 10
31.15327435321838
 20
173.4811395393649
 30
0.0
 10
32.0617029689852
 20
173.4811395393649
 30
0.0
 10
32.0617029689852
 20
173.4811395393649
 30
0.0
 10
52.39463499108295
 20
173.4811395393649
 30
0.0
 10
52.39463499108295
 20
173.4811395393649
 30
0.0
 10
52.39463499108295
 20
173.4811395393649
 30
0.0
 10
56.98074610104754
 20
173.4811395393649
 30
0.0
 10
56.98074610104754
 20
173.4811395393649
 30
0.0
 10
56.98074610104754
 20
173.4811395393649
 30
0.0
 10
69.56916060113409
 20
173.4811395393649
 30
0.0
 10
69.56916060113409
 20
173.4811395393649
 30
0.0
 10
70.47754615320734
 20
173.4811395393649
 30
0.0
 10
71.21393531317949
 20
172.7555163027841
 30
0.0
 10
71.21393531317949
 20
171.8604159001759
 30
0.0
 10
71.21393531317949
 20
171.8604159001759
 30
0.0
 10
71.21393531317949
 20
171.6434610119923
 30
0.0
 10
71.21393531317949
 20
171.6434610119923
 30
0.0
 10
71.21393531317949
 20
170.7483821412308
 30
0.0
 10
71.95036753684521
 20
170.02275890465
 30
0.0
 10
72.85877462076524
 20
170.02275890465
 30
0.0
 10
72.85877462076524
 20
170.02275890465
 30
0.0
 10
75.78678280552586
 20
170.02275890465
 30
0.0
 10
75.78678280552586
 20
170.02275890465
 30
0.0
 10
76.69514682575233
 20
170.02275890465
 30
0.0
 10
77.43157904941837
 20
170.7483821412308
 30
0.0
 10
77.43157904941837
 20
171.6434610119923
 30
0.0
 10
77.43157904941837
 20
171.6434610119923
 30
0.0
 10
77.43157904941837
 20
173.4811395393649
 30
0.0
 10
77.43157904941837
 20
173.4811395393649
 30
0.0
 10
77.43157904941837
 20
173.4811395393649
 30
0.0
 10
77.43157904941837
 20
176.505653461406
 30
0.0
 10
77.43157904941837
 20
176.505653461406
 30
0.0
 10
77.43157904941837
 20
177.4007323321675
 30
0.0
 10
78.16796820939052
 20
178.1263555687483
 30
0.0
 10
79.07639682515702
 20
178.1263555687483
 30
0.0
 10
79.07639682515702
 20
178.1263555687483
 30
0.0
 10
97.41501360124715
 20
178.1263555687483
 30
0.0
 10
97.41501360124715
 20
178.1263555687483
 30
0.0
 10
97.41501360124715
 20
178.1263555687483
 30
0.0
 10
105.9213478276254
 20
178.1263555687483
 30
0.0
 10
105.9213478276254
 20
178.1263555687483
 30
0.0
 10
106.8297549115454
 20
178.1263555687483
 30
0.0
 10
107.5661225396708
 20
178.8519357416354
 30
0.0
 10
107.5661225396708
 20
179.7470361442437
 30
0.0
 10
107.5661225396708
 20
179.7470361442437
 30
0.0
 10
107.5661225396708
 20
182.4483785779217
 30
0.0
 10
107.5661225396708
 20
182.4483785779217
 30
0.0
 10
107.5661225396708
 20
183.3434359168363
 30
0.0
 10
106.8297549115454
 20
184.0690591534171
 30
0.0
 10
105.9213478276254
 20
184.0690591534171
 30
0.0
  0
HATCH
  5
88
330
7E
100
AcDbEntity
  8
Calque 4
 62
   253
420
 11776947
440
 33554687
100
AcDbHatch
 10
0.0
 20
0.0
 30
0.0
210
0.0
220
0.0
230
1.0
  2
SOLID
 70
     1
 71
     1
 91
        6
 92
        1
 93
        1
 72
     4
 94
        3
 73
     0
 74
     0
 95
       41
 96
       37
 40
0.0
 40
0.0
 40
0.0
 40
0.0
 40
1.0
 40
1.0
 40
1.0
 40
2.0
 40
2.0
 40
2.0
 40
3.0
 40
3.0
 40
3.0
 40
4.0
 40
4.0
 40
4.0
 40
5.0
 40
5.0
 40
5.0
 40
6.0
 40
6.0
 40
6.0
 40
7.0
 40
7.0
 40
7.0
 40
8.0
 40
8.0
 40
8.0
 40
9.0
 40
9.0
 40
9.0
 40
10.0
 40
10.0
 40
10.0
 40
11.0
 40
11.0
 40
11.0
 40
12.0
 40
12.0
 40
12.0
 40
12.0
 10
79.64439287815072
 20
184.2213969694055
 10
79.64439287815072
 20
184.2213969694055
 10
75.56425116902584
 20
184.2213969694055
 10
75.56425116902584
 20
184.2213969694055
 10
74.17648854039024
 20
184.2213969694055
 10
73.05148464947173
 20
183.096393078486
 10
73.05148464947173
 20
181.7086304498514
 10
73.05148464947173
 20
181.7086304498514
 10
73.05148464947173
 20
180.5800171688835
 10
73.05148464947173
 20
180.5800171688835
 10
73.05148464947173
 20
179.1922545402476
 10
71.92648075855259
 20
178.0672506493295
 10
70.53871812991762
 20
178.0672506493295
 10
70.53871812991762
 20
178.0672506493295
 10
59.49351262060163
 20
178.0672506493295
 10
59.49351262060163
 20
178.0672506493295
 10
58.10574999196636
 20
178.0672506493295
 10
56.98074610104754
 20
179.1922545402476
 10
56.98074610104754
 20
180.5800171688835
 10
56.98074610104754
 20
180.5800171688835
 10
56.98074610104754
 20
196.9238946604573
 10
56.98074610104754
 20
196.9238946604573
 10
56.98074610104754
 20
198.3116572890929
 10
58.10574999196636
 20
199.4366611800114
 10
59.49351262060163
 20
199.4366611800114
 10
59.49351262060163
 20
199.4366611800114
 10
78.30676106910718
 20
199.4366611800114
 10
78.30676106910718
 20
199.4366611800114
 10
79.5681046590445
 20
199.4366611800114
 10
80.63398515924921
 20
198.5015560496889
 10
80.7981553561609
 20
197.2509418812411
 10
80.7981553561609
 20
197.2509418812411
 10
82.13577891932237
 20
187.0612057926671
 10
82.13577891932237
 20
187.0612057926671
 10
82.33330798779956
 20
185.5564707289033
 10
81.16203754835929
 20
184.2213969694055
 10
79.64439287815072
 20
184.2213969694055
 97
        0
 97
        1
330
82
 92
        1
 93
        1
 72
     4
 94
        3
 73
     0
 74
     0
 95
       44
 96
       40
 40
0.0
 40
0.0
 40
0.0
 40
0.0
 40
1.0
 40
1.0
 40
1.0
 40
2.0
 40
2.0
 40
2.0
 40
3.0
 40
3.0
 40
3.0
 40
4.0
 40
4.0
 40
4.0
 40
5.0
 40
5.0
 40
5.0
 40
6.0
 40
6.0
 40
6.0
 40
7.0
 40
7.0
 40
7.0
 40
8.0
 40
8.0
 40
8.0
 40
9.0
 40
9.0
 40
9.0
 40
10.0
 40
10.0
 40
10.0
 40
11.0
 40
11.0
 40
11.0
 40
12.0
 40
12.0
 40
12.0
 40
13.0
 40
13.0
 40
13.0
 40
13.0
 10
52.39463499108295
 20
180.5800171688835
 10
52.39463499108295
 20
179.1922545402476
 10
51.2696311001638
 20
178.0672506493295
 10
49.88186847152885
 20
178.0672506493295
 10
49.88186847152885
 20
178.0672506493295
 10
36.50845996657142
 20
178.0672506493295
 10
36.50845996657142
 20
178.0672506493295
 10
36.50845996657142
 20
178.0672506493295
 10
32.0617029689852
 20
178.0672506493295
 10
32.0617029689852
 20
178.0672506493295
 10
32.0617029689852
 20
178.0672506493295
 10
23.08959248516373
 20
178.0672506493295
 10
23.08959248516373
 20
178.0672506493295
 10
22.59712397184365
 20
178.0672506493295
 10
22.19789936223891
 20
178.4664752589342
 10
22.19789936223891
 20
178.9589437722543
 10
22.19789936223891
 20
178.9589437722543
 10
22.19789936223891
 20
178.958945339472
 10
22.19789936223891
 20
178.958945339472
 10
22.19789936223891
 20
179.3467633144492
 10
22.45093011405091
 20
179.6835180775631
 10
22.8189087307136
 20
179.8059701881818
 10
25.01564986509827
 20
180.5369789376265
 10
26.70492373016121
 20
182.4588605162596
 10
27.03455504136829
 20
184.8427199401703
 10
27.03455504136829
 20
184.8427199401703
 10
28.75290407387056
 20
197.2681242949738
 10
28.75290407387056
 20
197.2681242949738
 10
28.92479126948416
 20
198.5110428572176
 10
29.98722563024206
 20
199.4366611800114
 10
31.24197331818033
 20
199.4366611800114
 10
31.24197331818033
 20
199.4366611800114
 10
49.88186847152885
 20
199.4366611800114
 10
49.88186847152885
 20
199.4366611800114
 10
51.2696311001638
 20
199.4366611800114
 10
52.39463499108295
 20
198.3116572890929
 10
52.39463499108295
 20
196.9238946604573
 10
52.39463499108295
 20
196.9238946604573
 10
52.39463499108295
 20
180.5800171688835
 10
52.39463499108295
 20
180.5800171688835
 97
        0
 97
        1
330
83
 92
        1
 93
        1
 72
     4
 94
        3
 73
     0
 74
     0
 95
       41
 96
       37
 40
0.0
 40
0.0
 40
0.0
 40
0.0
 40
1.0
 40
1.0
 40
1.0
 40
2.0
 40
2.0
 40
2.0
 40
3.0
 40
3.0
 40
3.0
 40
4.0
 40
4.0
 40
4.0
 40
5.0
 40
5.0
 40
5.0
 40
6.0
 40
6.0
 40
6.0
 40
7.0
 40
7.0
 40
7.0
 40
8.0
 40
8.0
 40
8.0
 40
9.0
 40
9.0
 40
9.0
 40
10.0
 40
10.0
 40
10.0
 40
11.0
 40
11.0
 40
11.0
 40
12.0
 40
12.0
 40
12.0
 40
12.0
 10
-15.84607476290722
 20
178.0672506493295
 10
-17.23383739154249
 20
178.0672506493295
 10
-18.35884128246132
 20
179.1922545402476
 10
-18.35884128246132
 20
180.5800171688835
 10
-18.35884128246132
 20
180.5800171688835
 10
-18.35884128246132
 20
196.9238946604573
 10
-18.35884128246132
 20
196.9238946604573
 10
-18.35884128246132
 20
198.3116572890929
 10
-17.23383739154249
 20
199.4366611800114
 10
-15.84607476290722
 20
199.4366611800114
 10
-15.84607476290722
 20
199.4366611800114
 10
3.204872633588725
 20
199.4366611800114
 10
3.204872633588725
 20
199.4366611800114
 10
4.459630055255024
 20
199.4366611800114
 10
5.522071234130669
 20
198.5110325898989
 10
5.693954007373316
 20
197.2681035897194
 10
5.693954007373316
 20
197.2681035897194
 10
7.412238558643655
 20
184.8427414720171
 10
7.412238558643655
 20
184.8427414720171
 10
7.739664603053414
 20
182.4750431204149
 10
9.408508825282821
 20
180.5635016640018
 10
11.58345772412782
 20
179.8214305863201
 10
11.94809441912642
 20
179.6970201482805
 10
12.19790682459133
 20
179.3617717018259
 10
12.19790682459133
 20
178.9764953381172
 10
12.19790682459133
 20
178.9764953381172
 10
12.19790682459133
 20
178.9589437722543
 10
12.19790682459133
 20
178.9589437722543
 10
12.19790682459133
 20
178.4664752589342
 10
11.79868221498659
 20
178.0672506493295
 10
11.30621370166651
 20
178.0672506493295
 10
11.30621370166651
 20
178.0672506493295
 10
-12.84266205071319
 20
178.0672506493295
 10
-12.84266205071319
 20
178.0672506493295
 10
-12.84266205071319
 20
178.0672506493295
 10
-15.84607476290722
 20
178.0672506493295
 10
-15.84607476290722
 20
178.0672506493295
 97
        0
 97
        1
330
84
 92
        1
 93
        1
 72
     4
 94
        3
 73
     0
 74
     0
 95
       44
 96
       40
 40
0.0
 40
0.0
 40
0.0
 40
0.0
 40
1.0
 40
1.0
 40
1.0
 40
2.0
 40
2.0
 40
2.0
 40
3.0
 40
3.0
 40
3.0
 40
4.0
 40
4.0
 40
4.0
 40
5.0
 40
5.0
 40
5.0
 40
6.0
 40
6.0
 40
6.0
 40
7.0
 40
7.0
 40
7.0
 40
8.0
 40
8.0
 40
8.0
 40
9.0
 40
9.0
 40
9.0
 40
10.0
 40
10.0
 40
10.0
 40
11.0
 40
11.0
 40
11.0
 40
12.0
 40
12.0
 40
12.0
 40
13.0
 40
13.0
 40
13.0
 40
13.0
 10
-22.94495239242591
 20
180.5800171688835
 10
-22.94495239242591
 20
179.1922545402476
 10
-24.06995628334473
 20
178.0672506493295
 10
-25.45771891198
 20
178.0672506493295
 10
-25.45771891198
 20
178.0672506493295
 10
-37.22928971659602
 20
178.0672506493295
 10
-37.22928971659602
 20
178.0672506493295
 10
-38.6170523452313
 20
178.0672506493295
 10
-39.74205623615013
 20
179.1922545402476
 10
-39.74205623615013
 20
180.5800171688835
 10
-39.74205623615013
 20
180.5800171688835
 10
-39.74205623615013
 20
185.7127681995492
 10
-39.74205623615013
 20
185.7127681995492
 10
-39.74205623615013
 20
187.3378119872745
 10
-41.05941451225735
 20
188.6551702633817
 10
-42.68445829998232
 20
188.6551702633817
 10
-42.68445829998232
 20
188.6551702633817
 10
-44.80300665399698
 20
188.6551702633817
 10
-44.80300665399698
 20
188.6551702633817
 10
-44.80300665399698
 20
188.6551702633817
 10
-44.99033197892834
 20
188.6551702633817
 10
-44.99033197892834
 20
188.6551702633817
 10
-46.51495097033622
 20
188.6551702633817
 10
-47.68827217382528
 20
190.0019207959555
 10
-47.47941520910044
 20
191.5121664174519
 10
-47.47941520910044
 20
191.5121664174519
 10
-46.68340436538669
 20
197.2681242949738
 10
-46.68340436538669
 20
197.2681242949738
 10
-46.51151695502849
 20
198.5110429078432
 10
-45.44908247647647
 20
199.4366611800114
 10
-44.19433470897201
 20
199.4366611800114
 10
-44.19433470897201
 20
199.4366611800114
 10
-25.45771891198
 20
199.4366611800114
 10
-25.45771891198
 20
199.4366611800114
 10
-24.06995628334473
 20
199.4366611800114
 10
-22.94495239242591
 20
198.3116572890923
 10
-22.94495239242591
 20
196.9238946604573
 10
-22.94495239242591
 20
196.9238946604573
 10
-22.94495239242591
 20
180.5800171688835
 10
-22.94495239242591
 20
180.5800171688835
 97
        0
 97
        1
330
85
 92
        1
 93
        1
 72
     4
 94
        3
 73
     0
 74
     0
 95
       11
 96
        7
 40
0.0
 40
0.0
 40
0.0
 40
0.0
 40
1.0
 40
1.0
 40
1.0
 40
2.0
 40
2.0
 40
2.0
 40
2.0
 10
-39.97386809861387
 20
178.0672506493295
 10
-39.95050604485452
 20
178.1499544728222
 10
-39.92882347514424
 20
178.1401359506893
 10
-39.90886345317657
 20
178.0672506493295
 10
-39.90886345317657
 20
178.0672506493295
 10
-39.97386809861387
 20
178.0672506493295
 10
-39.97386809861387
 20
178.0672506493295
 97
        0
 97
        1
330
86
 92
        1
 93
        1
 72
     4
 94
        3
 73
     0
 74
     0
 95
      248
 96
      244
 40
0.0
 40
0.0
 40
0.0
 40
0.0
 40
1.0
 40
1.0
 40
1.0
 40
2.0
 40
2.0
 40
2.0
 40
3.0
 40
3.0
 40
3.0
 40
4.0
 40
4.0
 40
4.0
 40
5.0
 40
5.0
 40
5.0
 40
6.0
 40
6.0
 40
6.0
 40
7.0
 40
7.0
 40
7.0
 40
8.0
 40
8.0
 40
8.0
 40
9.0
 40
9.0
 40
9.0
 40
10.0
 40
10.0
 40
10.0
 40
11.0
 40
11.0
 40
11.0
 40
12.0
 40
12.0
 40
12.0
 40
13.0
 40
13.0
 40
13.0
 40
14.0
 40
14.0
 40
14.0
 40
15.0
 40
15.0
 40
15.0
 40
16.0
 40
16.0
 40
16.0
 40
17.0
 40
17.0
 40
17.0
 40
18.0
 40
18.0
 40
18.0
 40
19.0
 40
19.0
 40
19.0
 40
20.0
 40
20.0
 40
20.0
 40
21.0
 40
21.0
 40
21.0
 40
22.0
 40
22.0
 40
22.0
 40
23.0
 40
23.0
 40
23.0
 40
24.0
 40
24.0
 40
24.0
 40
25.0
 40
25.0
 40
25.0
 40
26.0
 40
26.0
 40
26.0
 40
27.0
 40
27.0
 40
27.0
 40
28.0
 40
28.0
 40
28.0
 40
29.0
 40
29.0
 40
29.0
 40
30.0
 40
30.0
 40
30.0
 40
31.0
 40
31.0
 40
31.0
 40
32.0
 40
32.0
 40
32.0
 40
33.0
 40
33.0
 40
33.0
 40
34.0
 40
34.0
 40
34.0
 40
35.0
 40
35.0
 40
35.0
 40
36.0
 40
36.0
 40
36.0
 40
37.0
 40
37.0
 40
37.0
 40
38.0
 40
38.0
 40
38.0
 40
39.0
 40
39.0
 40
39.0
 40
40.0
 40
40.0
 40
40.0
 40
41.0
 40
41.0
 40
41.0
 40
42.0
 40
42.0
 40
42.0
 40
43.0
 40
43.0
 40
43.0
 40
44.0
 40
44.0
 40
44.0
 40
45.0
 40
45.0
 40
45.0
 40
46.0
 40
46.0
 40
46.0
 40
47.0
 40
47.0
 40
47.0
 40
48.0
 40
48.0
 40
48.0
 40
49.0
 40
49.0
 40
49.0
 40
50.0
 40
50.0
 40
50.0
 40
51.0
 40
51.0
 40
51.0
 40
52.0
 40
52.0
 40
52.0
 40
53.0
 40
53.0
 40
53.0
 40
54.0
 40
54.0
 40
54.0
 40
55.0
 40
55.0
 40
55.0
 40
56.0
 40
56.0
 40
56.0
 40
57.0
 40
57.0
 40
57.0
 40
58.0
 40
58.0
 40
58.0
 40
59.0
 40
59.0
 40
59.0
 40
60.0
 40
60.0
 40
60.0
 40
61.0
 40
61.0
 40
61.0
 40
62.0
 40
62.0
 40
62.0
 40
63.0
 40
63.0
 40
63.0
 40
64.0
 40
64.0
 40
64.0
 40
65.0
 40
65.0
 40
65.0
 40
66.0
 40
66.0
 40
66.0
 40
67.0
 40
67.0
 40
67.0
 40
68.0
 40
68.0
 40
68.0
 40
69.0
 40
69.0
 40
69.0
 40
70.0
 40
70.0
 40
70.0
 40
71.0
 40
71.0
 40
71.0
 40
72.0
 40
72.0
 40
72.0
 40
73.0
 40
73.0
 40
73.0
 40
74.0
 40
74.0
 40
74.0
 40
75.0
 40
75.0
 40
75.0
 40
76.0
 40
76.0
 40
76.0
 40
77.0
 40
77.0
 40
77.0
 40
78.0
 40
78.0
 40
78.0
 40
79.0
 40
79.0
 40
79.0
 40
80.0
 40
80.0
 40
80.0
 40
81.0
 40
81.0
 40
81.0
 40
81.0
 10
105.9213478276254
 20
184.0690591534171
 10
105.9213478276254
 20
184.0690591534171
 10
97.41501360124715
 20
184.0690591534171
 10
97.41501360124715
 20
184.0690591534171
 10
97.41501360124715
 20
184.0690591534171
 10
88.70208720504212
 20
184.0690591534171
 10
88.70208720504212
 20
184.0690591534171
 10
87.87950606239837
 20
184.0690591534171
 10
87.18340298775686
 20
184.6678382806003
 10
87.07232019020434
 20
185.4709331019056
 10
87.07232019020434
 20
185.4709331019056
 10
84.70063033077122
 20
202.6208768096407
 10
84.70063033077122
 20
202.6208768096407
 10
84.58952600137191
 20
203.4239716309457
 10
83.8934229267304
 20
204.022772289976
 10
83.070906379627
 20
204.022772289976
 10
83.070906379627
 20
204.022772289976
 10
56.98074610104754
 20
204.022772289976
 10
56.98074610104754
 20
204.022772289976
 10
56.98074610104754
 20
204.022772289976
 10
52.39463499108295
 20
204.022772289976
 10
52.39463499108295
 20
204.022772289976
 10
52.39463499108295
 20
204.022772289976
 10
26.49317981770806
 20
204.022772289976
 10
26.49317981770806
 20
204.022772289976
 10
25.67057714321753
 20
204.022772289976
 10
24.97447406857602
 20
203.4239716309457
 10
24.86336973917671
 20
202.6208768096407
 10
24.86336973917671
 20
202.6208768096407
 10
22.49167987974359
 20
185.4709331019056
 10
22.49167987974359
 20
185.4709331019056
 10
22.38064014588463
 20
184.6678382806003
 10
21.68453707124312
 20
184.0690591534171
 10
20.86195592859937
 20
184.0690591534171
 10
20.86195592859937
 20
184.0690591534171
 10
13.58490226695292
 20
184.0690591534171
 10
13.58490226695292
 20
184.0690591534171
 10
12.76229959246239
 20
184.0690591534171
 10
12.06619651782087
 20
184.6678382806003
 10
11.95513525211513
 20
185.4709331019056
 10
11.95513525211513
 20
185.4709331019056
 10
9.583445392682017
 20
202.6208768096407
 10
9.583445392682017
 20
202.6208768096407
 10
9.472362595129492
 20
203.4239716309457
 10
8.776259520487979
 20
204.022772289976
 10
7.953721441537798
 20
204.022772289976
 10
7.953721441537798
 20
204.022772289976
 10
-18.35884128246132
 20
204.022772289976
 10
-18.35884128246132
 20
204.022772289976
 10
-18.35884128246132
 20
204.022772289976
 10
-22.94495239242591
 20
204.022772289976
 10
-22.94495239242591
 20
204.022772289976
 10
-22.94495239242591
 20
204.022772289976
 10
-48.94317168524275
 20
204.022772289976
 10
-48.94317168524275
 20
204.022772289976
 10
-49.76573129603972
 20
204.022772289976
 10
-50.46183437068123
 20
203.4239716309457
 10
-50.57291716823375
 20
202.6208768096407
 10
-50.57291716823375
 20
202.6208768096407
 10
-52.88412407005395
 20
185.908589419613
 10
-52.88412407005395
 20
185.908589419613
 10
-53.01865504875296
 20
184.9355221998042
 10
-52.25104471094573
 20
184.0690591534171
 10
-51.25435705521617
 20
184.0690591534171
 10
-51.25435705521617
 20
184.0690591534171
 10
-45.97300665370045
 20
184.0690591534171
 10
-45.97300665370045
 20
184.0690591534171
 10
-45.06455650608685
 20
184.0690591534171
 10
-44.32816734611471
 20
183.3434359168363
 10
-44.32816734611471
 20
182.4483785779217
 10
-44.32816734611471
 20
182.4483785779217
 10
-44.32816734611471
 20
179.7470361442437
 10
-44.32816734611471
 20
179.7470361442437
 10
-44.32816734611471
 20
178.8519357416354
 10
-45.06455650608685
 20
178.1263555687483
 10
-45.97300665370045
 20
178.1263555687483
 10
-45.97300665370045
 20
178.1263555687483
 10
-51.47148419817405
 20
178.1263555687483
 10
-51.47148419817405
 20
178.1263555687483
 10
-52.04558782894415
 20
178.1263555687483
 10
-52.57815652727021
 20
177.8313907996705
 10
-52.87660945552675
 20
177.3481515623239
 10
-52.87660945552675
 20
177.3481515623239
 10
-53.13850130794609
 20
176.92412490363
 10
-53.13850130794609
 20
176.92412490363
 10
-53.13850130794609
 20
176.92412490363
 10
-54.14815113543891
 20
175.2892763729515
 10
-54.14815113543891
 20
175.2892763729515
 10
-54.44660406369545
 20
174.8060371356048
 10
-54.97915123017474
 20
174.5111154302207
 10
-55.55327639279162
 20
174.5111154302207
 10
-55.55327639279162
 20
174.5111154302207
 10
-60.4024420749018
 20
174.5111154302207
 10
-60.4024420749018
 20
174.5111154302207
 10
-60.97656723751869
 20
174.5111154302207
 10
-61.50913593584475
 20
174.8060371356048
 10
-61.80756733225452
 20
175.2892763729515
 10
-61.80756733225452
 20
175.2892763729515
 10
-63.07910901216667
 20
177.3481515623239
 10
-63.07910901216667
 20
177.3481515623239
 10
-63.37760500411679
 20
177.8313907996705
 10
-63.91010910690249
 20
178.1263555687483
 10
-64.48423426951937
 20
178.1263555687483
 10
-64.48423426951937
 20
178.1263555687483
 10
-72.30905811332056
 20
178.1263555687483
 10
-72.30905811332056
 20
178.1263555687483
 10
-73.2174436653938
 20
178.1263555687483
 10
-73.95383282536596
 20
177.4007323321675
 10
-73.95383282536596
 20
176.505653461406
 10
-73.95383282536596
 20
176.505653461406
 10
-73.95383282536596
 20
175.1018201148603
 10
-73.95383282536596
 20
175.1018201148603
 10
-73.95383282536596
 20
174.2067412440988
 10
-73.2174436653938
 20
173.4811395393649
 10
-72.30905811332056
 20
173.4811395393649
 10
-72.30905811332056
 20
173.4811395393649
 10
-67.18191628924427
 20
173.4811395393649
 10
-67.18191628924427
 20
173.4811395393649
 10
-66.60783419032094
 20
173.4811395393649
 10
-66.0752439601481
 20
173.1861963021339
 10
-65.77683409558511
 20
172.7029570647873
 10
-65.77683409558511
 20
172.7029570647873
 10
-64.80172135033193
 20
171.1240913357441
 10
-64.80172135033193
 20
171.1240913357441
 10
-64.50326842207539
 20
170.6408305665506
 10
-63.97072125559611
 20
170.3459088611665
 10
-63.39663915667279
 20
170.3459088611665
 10
-63.39663915667279
 20
170.3459088611665
 10
-53.13850130794609
 20
170.3459088611665
 10
-53.13850130794609
 20
170.3459088611665
 10
-53.13850130794609
 20
170.3459088611665
 10
-52.19256421508362
 20
170.3459088611665
 10
-52.19256421508362
 20
170.3459088611665
 10
-51.6184821161603
 20
170.3459088611665
 10
-51.08589188598745
 20
170.6408305665506
 10
-50.78748202142447
 20
171.1240913357441
 10
-50.78748202142447
 20
171.1240913357441
 10
-49.81236927617128
 20
172.7029570647873
 10
-49.81236927617128
 20
172.7029570647873
 10
-49.51391634791473
 20
173.1861963021339
 10
-48.98136918143546
 20
173.4811395393649
 10
-48.40728708251214
 20
173.4811395393649
 10
-48.40728708251214
 20
173.4811395393649
 10
-25.341726853361
 20
173.4811395393649
 10
-25.341726853361
 20
173.4811395393649
 10
-24.43331976944096
 20
173.4811395393649
 10
-23.69693060946881
 20
172.7555163027841
 10
-23.69693060946881
 20
171.8604159001759
 10
-23.69693060946881
 20
171.8604159001759
 10
-23.69693060946881
 20
171.6434610119923
 10
-23.69693060946881
 20
171.6434610119923
 10
-23.69693060946881
 20
171.0732977091834
 10
-23.3966690060825
 20
170.5740818415239
 10
-22.94495239242591
 20
170.2852105850857
 10
-22.68751763229061
 20
170.1205780845843
 10
-22.3818730672086
 20
170.02275890465
 10
-22.05211283372984
 20
170.02275890465
 10
-22.05211283372984
 20
170.02275890465
 10
-19.13568878253837
 20
170.02275890465
 10
-19.13568878253837
 20
170.02275890465
 10
-18.85306176166719
 20
170.02275890465
 10
-18.59116990924785
 20
170.0994553428904
 10
-18.35884128246132
 20
170.2231988663512
 10
-17.84446699466673
 20
170.4971485529689
 10
-17.49091407049297
 20
171.0268750475197
 10
-17.49091407049297
 20
171.6434610119923
 10
-17.49091407049297
 20
171.6434610119923
 10
-17.49091407049297
 20
171.8604159001759
 10
-17.49091407049297
 20
171.8604159001759
 10
-17.49091407049297
 20
172.7555163027841
 10
-16.75448184682725
 20
173.4811395393649
 10
-15.84607476290722
 20
173.4811395393649
 10
-15.84607476290722
 20
173.4811395393649
 10
22.55448827680905
 20
173.4811395393649
 10
22.55448827680905
 20
173.4811395393649
 10
23.46289536072908
 20
173.4811395393649
 10
24.19928452070124
 20
172.7555163027841
 10
24.19928452070124
 20
171.8604159001759
 10
24.19928452070124
 20
171.8604159001759
 10
24.19928452070124
 20
171.6434610119923
 10
24.19928452070124
 20
171.6434610119923
 10
24.19928452070124
 20
170.7483821412308
 10
24.93567368067339
 20
170.02275890465
 10
25.84410229644021
 20
170.02275890465
 10
25.84410229644021
 20
170.02275890465
 10
28.77208894935404
 20
170.02275890465
 10
28.77208894935404
 20
170.02275890465
 10
29.68049603327408
 20
170.02275890465
 10
30.41688519324623
 20
170.7483821412308
 10
30.41688519324623
 20
171.6434610119923
 10
30.41688519324623
 20
171.6434610119923
 10
30.41688519324623
 20
171.8604159001759
 10
30.41688519324623
 20
171.8604159001759
 10
30.41688519324623
 20
172.7555163027841
 10
31.15327435321838
 20
173.4811395393649
 10
32.0617029689852
 20
173.4811395393649
 10
32.0617029689852
 20
173.4811395393649
 10
52.39463499108295
 20
173.4811395393649
 10
52.39463499108295
 20
173.4811395393649
 10
52.39463499108295
 20
173.4811395393649
 10
56.98074610104754
 20
173.4811395393649
 10
56.98074610104754
 20
173.4811395393649
 10
56.98074610104754
 20
173.4811395393649
 10
69.56916060113409
 20
173.4811395393649
 10
69.56916060113409
 20
173.4811395393649
 10
70.47754615320734
 20
173.4811395393649
 10
71.21393531317949
 20
172.7555163027841
 10
71.21393531317949
 20
171.8604159001759
 10
71.21393531317949
 20
171.8604159001759
 10
71.21393531317949
 20
171.6434610119923
 10
71.21393531317949
 20
171.6434610119923
 10
71.21393531317949
 20
170.7483821412308
 10
71.95036753684521
 20
170.02275890465
 10
72.85877462076524
 20
170.02275890465
 10
72.85877462076524
 20
170.02275890465
 10
75.78678280552586
 20
170.02275890465
 10
75.78678280552586
 20
170.02275890465
 10
76.69514682575233
 20
170.02275890465
 10
77.43157904941837
 20
170.7483821412308
 10
77.43157904941837
 20
171.6434610119923
 10
77.43157904941837
 20
171.6434610119923
 10
77.43157904941837
 20
173.4811395393649
 10
77.43157904941837
 20
173.4811395393649
 10
77.43157904941837
 20
173.4811395393649
 10
77.43157904941837
 20
176.505653461406
 10
77.43157904941837
 20
176.505653461406
 10
77.43157904941837
 20
177.4007323321675
 10
78.16796820939052
 20
178.1263555687483
 10
79.07639682515702
 20
178.1263555687483
 10
79.07639682515702
 20
178.1263555687483
 10
97.41501360124715
 20
178.1263555687483
 10
97.41501360124715
 20
178.1263555687483
 10
97.41501360124715
 20
178.1263555687483
 10
105.9213478276254
 20
178.1263555687483
 10
105.9213478276254
 20
178.1263555687483
 10
106.8297549115454
 20
178.1263555687483
 10
107.5661225396708
 20
178.8519357416354
 10
107.5661225396708
 20
179.7470361442437
 10
107.5661225396708
 20
179.7470361442437
 10
107.5661225396708
 20
182.4483785779217
 10
107.5661225396708
 20
182.4483785779217
 10
107.5661225396708
 20
183.3434359168363
 10
106.8297549115454
 20
184.0690591534171
 10
105.9213478276254
 20
184.0690591534171
 97
        0
 97
        1
330
87
 75
     2
 76
     1
 98
        1
 10
0.0
 20
0.0
450
        0
451
        0
460
0.0
461
0.0
452
        0
462
0.0
453
        0
470

  0
SPLINE
  5
89
330
7E
100
AcDbEntity
  8
Calque 4
 62
   250
420
  1907995
370
    35
100
AcDbSpline
210
0.0
220
0.0
230
1.0
 70
     9
 71
     3
 72
   224
 73
   220
 74
     0
 42
0.0000000001
 43
0.0000000001
 40
0.0
 40
0.0
 40
0.0
 40
0.0
 40
1.0
 40
1.0
 40
1.0
 40
2.0
 40
2.0
 40
2.0
 40
3.0
 40
3.0
 40
3.0
 40
4.0
 40
4.0
 40
4.0
 40
5.0
 40
5.0
 40
5.0
 40
6.0
 40
6.0
 40
6.0
 40
7.0
 40
7.0
 40
7.0
 40
8.0
 40
8.0
 40
8.0
 40
9.0
 40
9.0
 40
9.0
 40
10.0
 40
10.0
 40
10.0
 40
11.0
 40
11.0
 40
11.0
 40
12.0
 40
12.0
 40
12.0
 40
13.0
 40
13.0
 40
13.0
 40
14.0
 40
14.0
 40
14.0
 40
15.0
 40
15.0
 40
15.0
 40
16.0
 40
16.0
 40
16.0
 40
17.0
 40
17.0
 40
17.0
 40
18.0
 40
18.0
 40
18.0
 40
19.0
 40
19.0
 40
19.0
 40
20.0
 40
20.0
 40
20.0
 40
21.0
 40
21.0
 40
21.0
 40
22.0
 40
22.0
 40
22.0
 40
23.0
 40
23.0
 40
23.0
 40
24.0
 40
24.0
 40
24.0
 40
25.0
 40
25.0
 40
25.0
 40
26.0
 40
26.0
 40
26.0
 40
27.0
 40
27.0
 40
27.0
 40
28.0
 40
28.0
 40
28.0
 40
29.0
 40
29.0
 40
29.0
 40
30.0
 40
30.0
 40
30.0
 40
31.0
 40
31.0
 40
31.0
 40
32.0
 40
32.0
 40
32.0
 40
33.0
 40
33.0
 40
33.0
 40
34.0
 40
34.0
 40
34.0
 40
35.0
 40
35.0
 40
35.0
 40
36.0
 40
36.0
 40
36.0
 40
37.0
 40
37.0
 40
37.0
 40
38.0
 40
38.0
 40
38.0
 40
39.0
 40
39.0
 40
39.0
 40
40.0
 40
40.0
 40
40.0
 40
41.0
 40
41.0
 40
41.0
 40
42.0
 40
42.0
 40
42.0
 40
43.0
 40
43.0
 40
43.0
 40
44.0
 40
44.0
 40
44.0
 40
45.0
 40
45.0
 40
45.0
 40
46.0
 40
46.0
 40
46.0
 40
47.0
 40
47.0
 40
47.0
 40
48.0
 40
48.0
 40
48.0
 40
49.0
 40
49.0
 40
49.0
 40
50.0
 40
50.0
 40
50.0
 40
51.0
 40
51.0
 40
51.0
 40
52.0
 40
52.0
 40
52.0
 40
53.0
 40
53.0
 40
53.0
 40
54.0
 40
54.0
 40
54.0
 40
55.0
 40
55.0
 40
55.0
 40
56.0
 40
56.0
 40
56.0
 40
57.0
 40
57.0
 40
57.0
 40
58.0
 40
58.0
 40
58.0
 40
59.0
 40
59.0
 40
59.0
 40
60.0
 40
60.0
 40
60.0
 40
61.0
 40
61.0
 40
61.0
 40
62.0
 40
62.0
 40
62.0
 40
63.0
 40
63.0
 40
63.0
 40
64.0
 40
64.0
 40
64.0
 40
65.0
 40
65.0
 40
65.0
 40
66.0
 40
66.0
 40
66.0
 40
67.0
 40
67.0
 40
67.0
 40
68.0
 40
68.0
 40
68.0
 40
69.0
 40
69.0
 40
69.0
 40
70.0
 40
70.0
 40
70.0
 40
71.0
 40
71.0
 40
71.0
 40
72.0
 40
72.0
 40
72.0
 40
73.0
 40
73.0
 40
73.0
 40
73.0
 10
105.791350152019
 20
184.0690727988828
 30
0.0
 10
105.791350152019
 20
184.0690727988828
 30
0.0
 10
97.41501592560554
 20
184.0690727988828
 30
0.0
 10
97.41501592560554
 20
184.0690727988828
 30
0.0
 10
97.41501592560554
 20
184.0690727988828
 30
0.0
 10
88.70208952940052
 20
184.0690727988828
 30
0.0
 10
88.70208952940052
 20
184.0690727988828
 30
0.0
 10
87.87950838675678
 20
184.0690727988828
 30
0.0
 10
87.18340531211527
 20
184.6678303942192
 30
0.0
 10
87.07232251456273
 20
185.4709467473713
 30
0.0
 10
87.07232251456273
 20
185.4709467473713
 30
0.0
 10
84.70063265512962
 20
202.6208904551061
 30
0.0
 10
84.70063265512962
 20
202.6208904551061
 30
0.0
 10
84.5895498575771
 20
203.4239852764114
 30
0.0
 10
83.89344678293559
 20
204.0227644035949
 30
0.0
 10
83.07088717213863
 20
204.0227644035949
 30
0.0
 10
83.07088717213863
 20
204.0227644035949
 30
0.0
 10
26.49316061021969
 20
204.0227644035949
 30
0.0
 10
26.49316061021969
 20
204.0227644035949
 30
0.0
 10
25.67055793572916
 20
204.0227644035949
 30
0.0
 10
24.97445486108764
 20
203.4239852764114
 30
0.0
 10
24.8633935953819
 20
202.6208904551061
 30
0.0
 10
24.8633935953819
 20
202.6208904551061
 30
0.0
 10
22.49170373594878
 20
185.4709467473713
 30
0.0
 10
22.49170373594878
 20
185.4709467473713
 30
0.0
 10
22.38064247024304
 20
184.667851926066
 30
0.0
 10
21.68453939560153
 20
184.0690727988828
 30
0.0
 10
20.86195825295778
 20
184.0690727988828
 30
0.0
 10
20.86195825295778
 20
184.0690727988828
 30
0.0
 10
13.58488305946455
 20
184.0690727988828
 30
0.0
 10
13.58488305946455
 20
184.0690727988828
 30
0.0
 10
12.7623019168208
 20
184.0690727988828
 30
0.0
 10
12.06619884217929
 20
184.667851926066
 30
0.0
 10
11.95511604462676
 20
185.4709467473713
 30
0.0
 10
11.95511604462676
 20
185.4709467473713
 30
0.0
 10
9.583447717040426
 20
202.6208904551061
 30
0.0
 10
9.583447717040426
 20
202.6208904551061
 30
0.0
 10
9.472364919487903
 20
203.4239852764114
 30
0.0
 10
8.77626184484639
 20
204.0227644035949
 30
0.0
 10
7.953702234049425
 20
204.0227644035949
 30
0.0
 10
7.953702234049425
 20
204.0227644035949
 30
0.0
 10
-48.94316936088435
 20
204.0227644035949
 30
0.0
 10
-48.94316936088435
 20
204.0227644035949
 30
0.0
 10
-49.76575050352809
 20
204.0227644035949
 30
0.0
 10
-50.4618535781696
 20
203.4239852764114
 30
0.0
 10
-50.57293637572213
 20
202.6208904551061
 30
0.0
 10
-50.57293637572213
 20
202.6208904551061
 30
0.0
 10
-52.88410021384876
 20
185.908581533232
 30
0.0
 10
-52.88410021384876
 20
185.908581533232
 30
0.0
 10
-53.01867425624134
 20
184.9355143134231
 30
0.0
 10
-52.25104238658732
 20
184.0690727988828
 30
0.0
 10
-51.25435473085776
 20
184.0690727988828
 30
0.0
 10
-51.25435473085776
 20
184.0690727988828
 30
0.0
 10
-45.97300432934204
 20
184.0690727988828
 30
0.0
 10
-45.97300432934204
 20
184.0690727988828
 30
0.0
 10
-45.06457571357523
 20
184.0690727988828
 30
0.0
 10
-44.32818655360308
 20
183.3434495623021
 30
0.0
 10
-44.32818655360308
 20
182.4483706915406
 30
0.0
 10
-44.32818655360308
 20
182.4483706915406
 30
0.0
 10
-44.32818655360308
 20
179.7470282578626
 30
0.0
 10
-44.32818655360308
 20
179.7470282578626
 30
0.0
 10
-44.32818655360308
 20
178.8519493871012
 30
0.0
 10
-45.06457571357523
 20
178.1263476823672
 30
0.0
 10
-45.97300432934204
 20
178.1263476823672
 30
0.0
 10
-45.97300432934204
 20
178.1263476823672
 30
0.0
 10
-51.47150340566241
 20
178.1263476823672
 30
0.0
 10
-51.47150340566241
 20
178.1263476823672
 30
0.0
 10
-52.04560703643252
 20
178.1263476823672
 30
0.0
 10
-52.5781542029118
 20
177.8314044451362
 30
0.0
 10
-52.87660713116835
 20
177.3481652077896
 30
0.0
 10
-52.87660713116835
 20
177.3481652077896
 30
0.0
 10
-53.13849898358768
 20
176.9241170172489
 30
0.0
 10
-53.13849898358768
 20
176.9241170172489
 30
0.0
 10
-53.13849898358768
 20
176.9241170172489
 30
0.0
 10
-54.14817034292727
 20
175.2892900184171
 30
0.0
 10
-54.14817034292727
 20
175.2892900184171
 30
0.0
 10
-54.44660173933705
 20
174.8060507810705
 30
0.0
 10
-54.9791704376631
 20
174.5111075438396
 30
0.0
 10
-55.55325253658643
 20
174.5111075438396
 30
0.0
 10
-55.55325253658643
 20
174.5111075438396
 30
0.0
 10
-60.40246128239019
 20
174.5111075438396
 30
0.0
 10
-60.40246128239019
 20
174.5111075438396
 30
0.0
 10
-60.97656491316028
 20
174.5111075438396
 30
0.0
 10
-61.50913361148634
 20
174.8060507810705
 30
0.0
 10
-61.80756500789611
 20
175.2892684865704
 30
0.0
 10
-61.80756500789611
 20
175.2892684865704
 30
0.0
 10
-63.07912821965504
 20
177.3481652077896
 30
0.0
 10
-63.07912821965504
 20
177.3481652077896
 30
0.0
 10
-63.37758114791159
 20
177.8314044451362
 30
0.0
 10
-63.91012831439087
 20
178.1263476823672
 30
0.0
 10
-64.48421041331418
 20
178.1263476823672
 30
0.0
 10
-64.48421041331418
 20
178.1263476823672
 30
0.0
 10
-72.30903425711535
 20
178.1263476823672
 30
0.0
 10
-72.30903425711535
 20
178.1263476823672
 30
0.0
 10
-73.21746287288218
 20
178.1263476823672
 30
0.0
 10
-73.95385203285433
 20
177.4007244457864
 30
0.0
 10
-73.95385203285433
 20
176.5056455750249
 30
0.0
 10
-73.95385203285433
 20
176.5056455750249
 30
0.0
 10
-73.95385203285433
 20
175.1018122284792
 30
0.0
 10
-73.95385203285433
 20
175.1018122284792
 30
0.0
 10
-73.95385203285433
 20
174.2067333577177
 30
0.0
 10
-73.21746287288218
 20
173.4811316529838
 30
0.0
 10
-72.30903425711535
 20
173.4811316529838
 30
0.0
 10
-72.30903425711535
 20
173.4811316529838
 30
0.0
 10
-67.18193549673263
 20
173.4811316529838
 30
0.0
 10
-67.18193549673263
 20
173.4811316529838
 30
0.0
 10
-66.60783186596254
 20
173.4811316529838
 30
0.0
 10
-66.07526316763648
 20
173.1861884157528
 30
0.0
 10
-65.77683177122671
 20
172.7029491784062
 30
0.0
 10
-65.77683177122671
 20
172.7029491784062
 30
0.0
 10
-64.80174055782031
 20
171.124083449363
 30
0.0
 10
-64.80174055782031
 20
171.124083449363
 30
0.0
 10
-64.50328762956376
 20
170.6408442120164
 30
0.0
 10
-63.97074046308448
 20
170.3459009747854
 30
0.0
 10
-63.39663683231438
 20
170.3459009747854
 30
0.0
 10
-63.39663683231438
 20
170.3459009747854
 30
0.0
 10
-53.13849898358768
 20
170.3459009747854
 30
0.0
 10
-53.13849898358768
 20
170.3459009747854
 30
0.0
 10
-53.13849898358768
 20
170.3459009747854
 30
0.0
 10
-52.19258342257199
 20
170.3459009747854
 30
0.0
 10
-52.19258342257199
 20
170.3459009747854
 30
0.0
 10
-51.61847979180189
 20
170.3459009747854
 30
0.0
 10
-51.08591109347583
 20
170.6408442120164
 30
0.0
 10
-50.78747969706606
 20
171.124083449363
 30
0.0
 10
-50.78747969706606
 20
171.124083449363
 30
0.0
 10
-49.81238848365966
 20
172.7029491784062
 30
0.0
 10
-49.81238848365966
 20
172.7029491784062
 30
0.0
 10
-49.51393555540311
 20
173.1861884157528
 30
0.0
 10
-48.98138838892383
 20
173.4811316529838
 30
0.0
 10
-48.40728475815374
 20
173.4811316529838
 30
0.0
 10
-48.40728475815374
 20
173.4811316529838
 30
0.0
 10
-25.34174606084937
 20
173.4811316529838
 30
0.0
 10
-25.34174606084937
 20
173.4811316529838
 30
0.0
 10
-24.43333897692934
 20
173.4811316529838
 30
0.0
 10
-23.69694981695718
 20
172.755508416403
 30
0.0
 10
-23.69694981695718
 20
171.8604295456415
 30
0.0
 10
-23.69694981695718
 20
171.8604295456415
 30
0.0
 10
-23.69694981695718
 20
171.6434531256112
 30
0.0
 10
-23.69694981695718
 20
171.6434531256112
 30
0.0
 10
-23.69694981695718
 20
170.7483742548497
 30
0.0
 10
-22.96053912513825
 20
170.0227725501157
 30
0.0
 10
-22.05213204121822
 20
170.0227725501157
 30
0.0
 10
-22.05213204121822
 20
170.0227725501157
 30
0.0
 10
-19.13570799002675
 20
170.0227725501157
 30
0.0
 10
-19.13570799002675
 20
170.0227725501157
 30
0.0
 10
-18.2273224379535
 20
170.0227725501157
 30
0.0
 10
-17.49091174613456
 20
170.7483742548497
 30
0.0
 10
-17.49091174613456
 20
171.6434531256112
 30
0.0
 10
-17.49091174613456
 20
171.6434531256112
 30
0.0
 10
-17.49091174613456
 20
171.8604295456415
 30
0.0
 10
-17.49091174613456
 20
171.8604295456415
 30
0.0
 10
-17.49091174613456
 20
172.755508416403
 30
0.0
 10
-16.75450105431562
 20
173.4811316529838
 30
0.0
 10
-15.84609397039559
 20
173.4811316529838
 30
0.0
 10
-15.84609397039559
 20
173.4811316529838
 30
0.0
 10
22.55446840295087
 20
173.4811316529838
 30
0.0
 10
22.55446840295087
 20
173.4811316529838
 30
0.0
 10
23.46287548687091
 20
173.4811316529838
 30
0.0
 10
24.19926464684306
 20
172.755508416403
 30
0.0
 10
24.19926464684306
 20
171.8604295456415
 30
0.0
 10
24.19926464684306
 20
171.8604295456415
 30
0.0
 10
24.19926464684306
 20
171.6434531256112
 30
0.0
 10
24.19926464684306
 20
171.6434531256112
 30
0.0
 10
24.19926464684306
 20
170.7483742548497
 30
0.0
 10
24.935675338662
 20
170.0227725501157
 30
0.0
 10
25.84408242258203
 20
170.0227725501157
 30
0.0
 10
25.84408242258203
 20
170.0227725501157
 30
0.0
 10
28.77209060734265
 20
170.0227725501157
 30
0.0
 10
28.77209060734265
 20
170.0227725501157
 30
0.0
 10
29.68047615941591
 20
170.0227725501157
 30
0.0
 10
30.41688685123484
 20
170.7483742548497
 30
0.0
 10
30.41688685123484
 20
171.6434531256112
 30
0.0
 10
30.41688685123484
 20
171.6434531256112
 30
0.0
 10
30.41688685123484
 20
171.8604295456415
 30
0.0
 10
30.41688685123484
 20
171.8604295456415
 30
0.0
 10
30.41688685123484
 20
172.755508416403
 30
0.0
 10
31.15327601120699
 20
173.4811316529838
 30
0.0
 10
32.06170462697381
 20
173.4811316529838
 30
0.0
 10
32.06170462697381
 20
173.4811316529838
 30
0.0
 10
69.56915215956911
 20
173.4811316529838
 30
0.0
 10
69.56915215956911
 20
173.4811316529838
 30
0.0
 10
70.47755924348914
 20
173.4811316529838
 30
0.0
 10
71.2139484034613
 20
172.755508416403
 30
0.0
 10
71.2139484034613
 20
171.8604295456415
 30
0.0
 10
71.2139484034613
 20
171.8604295456415
 30
0.0
 10
71.2139484034613
 20
171.6434531256112
 30
0.0
 10
71.2139484034613
 20
171.6434531256112
 30
0.0
 10
71.2139484034613
 20
170.7483742548497
 30
0.0
 10
71.95035909528023
 20
170.0227725501157
 30
0.0
 10
72.85876617920026
 20
170.0227725501157
 30
0.0
 10
72.85876617920026
 20
170.0227725501157
 30
0.0
 10
75.78678512988428
 20
170.0227725501157
 30
0.0
 10
75.78678512988428
 20
170.0227725501157
 30
0.0
 10
76.69517068195753
 20
170.0227725501157
 30
0.0
 10
77.43158137377647
 20
170.7483742548497
 30
0.0
 10
77.43158137377647
 20
171.6434531256112
 30
0.0
 10
77.43158137377647
 20
171.6434531256112
 30
0.0
 10
77.43158137377647
 20
173.4811316529838
 30
0.0
 10
77.43158137377647
 20
173.4811316529838
 30
0.0
 10
77.43158137377647
 20
173.4811316529838
 30
0.0
 10
77.43158137377647
 20
176.5056455750249
 30
0.0
 10
77.43158137377647
 20
176.5056455750249
 30
0.0
 10
77.43158137377647
 20
177.4007244457864
 30
0.0
 10
78.16797053374862
 20
178.1263476823672
 30
0.0
 10
79.07639914951575
 20
178.1263476823672
 30
0.0
 10
79.07639914951575
 20
178.1263476823672
 30
0.0
 10
97.41501592560554
 20
178.1263476823672
 30
0.0
 10
97.41501592560554
 20
178.1263476823672
 30
0.0
 10
97.41501592560554
 20
178.1263476823672
 30
0.0
 10
105.791350152019
 20
178.1263476823672
 30
0.0
 10
105.791350152019
 20
178.1263476823672
 30
0.0
 10
106.6997357040922
 20
178.1263476823672
 30
0.0
 10
107.4361463959112
 20
178.8519493871012
 30
0.0
 10
107.4361463959112
 20
179.7470282578626
 30
0.0
 10
107.4361463959112
 20
179.7470282578626
 30
0.0
 10
107.4361463959112
 20
182.4483706915406
 30
0.0
 10
107.4361463959112
 20
182.4483706915406
 30
0.0
 10
107.4361463959112
 20
183.3434495623021
 30
0.0
 10
106.6997357040922
 20
184.0690727988828
 30
0.0
 10
105.791350152019
 20
184.0690727988828
 30
0.0
  0
ENDBLK
  5
81
330
7E
100
AcDbEntity
  8
0
100
AcDbBlockEnd
  0
BLOCK
  5
8C
330
8A
100
AcDbEntity
  8
0
100
AcDbBlockBegin
  2
Block_2
 70
     0
 10
0.0
 20
0.0
 30
0.0
  3
Block_2
  1

  0
SPLINE
  5
8E
330
8A
100
AcDbEntity
  8
Calque 4
100
AcDbSpline
210
0.0
220
0.0
230
1.0
 70
     9
 71
     3
 72
   104
 73
   100
 74
     0
 42
0.0000000001
 43
0.0000000001
 40
0.0
 40
0.0
 40
0.0
 40
0.0
 40
1.0
 40
1.0
 40
1.0
 40
2.0
 40
2.0
 40
2.0
 40
3.0
 40
3.0
 40
3.0
 40
4.0
 40
4.0
 40
4.0
 40
5.0
 40
5.0
 40
5.0
 40
6.0
 40
6.0
 40
6.0
 40
7.0
 40
7.0
 40
7.0
 40
8.0
 40
8.0
 40
8.0
 40
9.0
 40
9.0
 40
9.0
 40
10.0
 40
10.0
 40
10.0
 40
11.0
 40
11.0
 40
11.0
 40
12.0
 40
12.0
 40
12.0
 40
13.0
 40
13.0
 40
13.0
 40
14.0
 40
14.0
 40
14.0
 40
15.0
 40
15.0
 40
15.0
 40
16.0
 40
16.0
 40
16.0
 40
17.0
 40
17.0
 40
17.0
 40
18.0
 40
18.0
 40
18.0
 40
19.0
 40
19.0
 40
19.0
 40
20.0
 40
20.0
 40
20.0
 40
21.0
 40
21.0
 40
21.0
 40
22.0
 40
22.0
 40
22.0
 40
23.0
 40
23.0
 40
23.0
 40
24.0
 40
24.0
 40
24.0
 40
25.0
 40
25.0
 40
25.0
 40
26.0
 40
26.0
 40
26.0
 40
27.0
 40
27.0
 40
27.0
 40
28.0
 40
28.0
 40
28.0
 40
29.0
 40
29.0
 40
29.0
 40
30.0
 40
30.0
 40
30.0
 40
31.0
 40
31.0
 40
31.0
 40
32.0
 40
32.0
 40
32.0
 40
33.0
 40
33.0
 40
33.0
 40
33.0
 10
257.433073096519
 20
181.8285051887298
 30
0.0
 10
257.433073096519
 20
181.8285051887298
 30
0.0
 10
257.433073096519
 20
180.0099299564367
 30
0.0
 10
257.433073096519
 20
180.0099299564367
 30
0.0
 10
257.433073096519
 20
178.9541733222586
 30
0.0
 10
256.5772132423084
 20
178.0983134677259
 30
0.0
 10
255.5214566081303
 20
178.098313467328
 30
0.0
 10
255.5214566081303
 20
178.098313467328
 30
0.0
 10
237.3462071130278
 20
178.0983134604811
 30
0.0
 10
237.3462071130278
 20
178.0983134604811
 30
0.0
 10
236.8788747259875
 20
178.0983134603052
 30
0.0
 10
236.5000269727375
 20
178.4771612134127
 30
0.0
 10
236.5000269727375
 20
178.9444936004531
 30
0.0
 10
236.5000269727375
 20
178.9444936004531
 30
0.0
 10
236.5000269727375
 20
178.9444951089104
 30
0.0
 10
236.5000269727375
 20
178.9444951089104
 30
0.0
 10
236.5000269727375
 20
179.3414502979661
 30
0.0
 10
236.7360031019791
 20
179.7004153676758
 30
0.0
 10
237.1004209884294
 20
179.8578098598061
 30
0.0
 10
237.1004209884294
 20
179.8578098598061
 30
0.0
 10
237.1059546730526
 20
179.8601998947451
 30
0.0
 10
237.1059546730526
 20
179.8601998947451
 30
0.0
 10
237.7639679107354
 20
180.088329811409
 30
0.0
 10
238.374008193786
 20
180.4256046594149
 30
0.0
 10
238.9146298028088
 20
180.8495882544153
 30
0.0
 10
238.9425350762393
 20
180.8714861425934
 30
0.0
 10
238.9701819675085
 20
180.8936208810862
 30
0.0
 10
238.9976996676969
 20
180.9159709380467
 30
0.0
 10
239.0871860229263
 20
180.9886409209387
 30
0.0
 10
239.1752082125744
 20
181.0630334515733
 30
0.0
 10
239.2605389213747
 20
181.1404835044511
 30
0.0
 10
239.2796592175194
 20
181.1578812513946
 30
0.0
 10
239.298198152818
 20
181.1759249548364
 30
0.0
 10
239.3167802347689
 20
181.1939039490987
 30
0.0
 10
239.4453033071315
 20
181.3182557621314
 30
0.0
 10
239.6492338585609
 20
181.5276557739717
 30
0.0
 10
239.7679911200236
 20
181.6613654085683
 30
0.0
 10
239.8029343624219
 20
181.7007082505564
 30
0.0
 10
239.838756938627
 20
181.7392379578346
 30
0.0
 10
239.8723448158615
 20
181.7798070991263
 30
0.0
 10
239.9271003022302
 20
181.8458022095156
 30
0.0
 10
239.9784322249604
 20
181.9146610555271
 30
0.0
 10
240.0304962304812
 20
181.9829170098286
 30
0.0
 10
240.0799118188478
 20
182.0477494004916
 30
0.0
 10
240.1285737925769
 20
182.1130339599371
 30
0.0
 10
240.1754916867167
 20
182.1798472805042
 30
0.0
 10
240.2206870331138
 20
182.2442490342316
 30
0.0
 10
240.2647627234782
 20
182.3094689981367
 30
0.0
 10
240.3075680348825
 20
182.375657895147
 30
0.0
 10
240.3606655690488
 20
182.4577803587767
 30
0.0
 10
240.410813240206
 20
182.5417976249232
 30
0.0
 10
240.4600996374919
 20
182.6265469738604
 30
0.0
 10
240.4926557898275
 20
182.6825513073425
 30
0.0
 10
240.526611512204
 20
182.7376297714129
 30
0.0
 10
240.557445116797
 20
182.7947537609277
 30
0.0
 10
240.633086494545
 20
182.9348399560967
 30
0.0
 10
240.7037109519926
 20
183.0780267372024
 30
0.0
 10
240.7686294700428
 20
183.224486359019
 30
0.0
 10
240.7873191130503
 20
183.2666672468666
 30
0.0
 10
240.8030373612017
 20
183.3104630232228
 30
0.0
 10
240.8208226666443
 20
183.3531606753931
 30
0.0
 10
240.8684941754215
 20
183.4676455047373
 30
0.0
 10
240.9134742033508
 20
183.5834222448885
 30
0.0
 10
240.9543847122381
 20
183.7013737015648
 30
0.0
 10
240.9735695877216
 20
183.7567320796434
 30
0.0
 10
240.9912257020835
 20
183.812779476819
 30
0.0
 10
241.0088818164454
 20
183.8688699376883
 30
0.0
 10
241.0448184687259
 20
183.9830102574839
 30
0.0
 10
241.0771593025937
 20
184.0986362747076
 30
0.0
 10
241.1065502734522
 20
184.2156187982786
 30
0.0
 10
241.1195770407558
 20
184.2674890171784
 30
0.0
 10
241.1335081456243
 20
184.3189501309893
 30
0.0
 10
241.1452214702741
 20
184.3713586460587
 30
0.0
 10
241.1828160747569
 20
184.5395008375857
 30
0.0
 10
241.2156736729475
 20
184.709494767936
 30
0.0
 10
241.2392941088683
 20
184.8828046026908
 30
0.0
 10
241.2392941088683
 20
184.8828046026908
 30
0.0
 10
243.1706353428399
 20
198.4115811216709
 30
0.0
 10
243.1706353428399
 20
198.4115811216709
 30
0.0
 10
243.2571478480509
 20
199.0175891789244
 30
0.0
 10
243.7761315490211
 20
199.4677455305767
 30
0.0
 10
244.3882836371609
 20
199.4677455305767
 30
0.0
 10
244.3882836371609
 20
199.4677455305767
 30
0.0
 10
264.9607359228706
 20
199.4677455305767
 30
0.0
 10
264.9607359228706
 20
199.4677455305767
 30
0.0
 10
265.5758607197632
 20
199.4677455305767
 30
0.0
 10
266.0964058075667
 20
199.0133216726093
 30
0.0
 10
266.1794578772613
 20
198.4038293679233
 30
0.0
 10
266.1794578772613
 20
198.4038293679233
 30
0.0
 10
267.8467605194041
 20
185.6233307597831
 30
0.0
 10
267.8467605194041
 20
185.6233307597831
 30
0.0
 10
267.9825031043642
 20
184.6271554660552
 30
0.0
 10
267.2081426084728
 20
183.7401216778385
 30
0.0
 10
266.2027614542796
 20
183.7401216778385
 30
0.0
 10
266.2027614542796
 20
183.7401216778385
 30
0.0
 10
259.3446895856277
 20
183.7401216778385
 30
0.0
 10
259.3446895856277
 20
183.7401216778385
 30
0.0
 10
258.2889329511672
 20
183.7401216778385
 30
0.0
 10
257.433073096519
 20
182.8842618231896
 30
0.0
 10
257.433073096519
 20
181.8285051887298
 30
0.0
  0
SPLINE
  5
8F
330
8A
100
AcDbEntity
  8
Calque 4
100
AcDbSpline
210
0.0
220
0.0
230
1.0
 70
     9
 71
     3
 72
   161
 73
   157
 74
     0
 42
0.0000000001
 43
0.0000000001
 40
0.0
 40
0.0
 40
0.0
 40
0.0
 40
1.0
 40
1.0
 40
1.0
 40
2.0
 40
2.0
 40
2.0
 40
3.0
 40
3.0
 40
3.0
 40
4.0
 40
4.0
 40
4.0
 40
5.0
 40
5.0
 40
5.0
 40
6.0
 40
6.0
 40
6.0
 40
7.0
 40
7.0
 40
7.0
 40
8.0
 40
8.0
 40
8.0
 40
9.0
 40
9.0
 40
9.0
 40
10.0
 40
10.0
 40
10.0
 40
11.0
 40
11.0
 40
11.0
 40
12.0
 40
12.0
 40
12.0
 40
13.0
 40
13.0
 40
13.0
 40
14.0
 40
14.0
 40
14.0
 40
15.0
 40
15.0
 40
15.0
 40
16.0
 40
16.0
 40
16.0
 40
17.0
 40
17.0
 40
17.0
 40
18.0
 40
18.0
 40
18.0
 40
19.0
 40
19.0
 40
19.0
 40
20.0
 40
20.0
 40
20.0
 40
21.0
 40
21.0
 40
21.0
 40
22.0
 40
22.0
 40
22.0
 40
23.0
 40
23.0
 40
23.0
 40
24.0
 40
24.0
 40
24.0
 40
25.0
 40
25.0
 40
25.0
 40
26.0
 40
26.0
 40
26.0
 40
27.0
 40
27.0
 40
27.0
 40
28.0
 40
28.0
 40
28.0
 40
29.0
 40
29.0
 40
29.0
 40
30.0
 40
30.0
 40
30.0
 40
31.0
 40
31.0
 40
31.0
 40
32.0
 40
32.0
 40
32.0
 40
33.0
 40
33.0
 40
33.0
 40
34.0
 40
34.0
 40
34.0
 40
35.0
 40
35.0
 40
35.0
 40
36.0
 40
36.0
 40
36.0
 40
37.0
 40
37.0
 40
37.0
 40
38.0
 40
38.0
 40
38.0
 40
39.0
 40
39.0
 40
39.0
 40
40.0
 40
40.0
 40
40.0
 40
41.0
 40
41.0
 40
41.0
 40
42.0
 40
42.0
 40
42.0
 40
43.0
 40
43.0
 40
43.0
 40
44.0
 40
44.0
 40
44.0
 40
45.0
 40
45.0
 40
45.0
 40
46.0
 40
46.0
 40
46.0
 40
47.0
 40
47.0
 40
47.0
 40
48.0
 40
48.0
 40
48.0
 40
49.0
 40
49.0
 40
49.0
 40
50.0
 40
50.0
 40
50.0
 40
51.0
 40
51.0
 40
51.0
 40
52.0
 40
52.0
 40
52.0
 40
52.0
 10
191.1980118066542
 20
178.098313468048
 30
0.0
 10
190.7086800163379
 20
178.098313468048
 30
0.0
 10
190.3119984238756
 20
178.4949956409925
 30
0.0
 10
190.3119991399373
 20
178.9843274313075
 30
0.0
 10
190.3119991399373
 20
178.9843274313075
 30
0.0
 10
190.3119992826948
 20
179.0818831247656
 30
0.0
 10
190.3119992826948
 20
179.0818831247656
 30
0.0
 10
190.3119998178448
 20
179.4475866399959
 30
0.0
 10
190.5696022605512
 20
179.7224466342891
 30
0.0
 10
190.9014982922052
 20
179.8760177423232
 30
0.0
 10
190.9041852837279
 20
179.8772610360839
 30
0.0
 10
190.9067675229415
 20
179.8786760901192
 30
0.0
 10
190.9095927189984
 20
179.8796862160835
 30
0.0
 10
191.0382455035257
 20
179.9256997726584
 30
0.0
 10
191.1648527626086
 20
179.9762780807512
 30
0.0
 10
191.2896513465618
 20
180.0304091435632
 30
0.0
 10
191.2982856171217
 20
180.0341556849034
 30
0.0
 10
191.3069198876817
 20
180.0379022262437
 30
0.0
 10
191.3155326263948
 20
180.0416702994306
 30
0.0
 10
191.8057051184055
 20
180.2569241717184
 30
0.0
 10
192.263472181008
 20
180.5348787818377
 30
0.0
 10
192.6800272888683
 20
180.8641437828405
 30
0.0
 10
192.7108824253081
 20
180.8885178333986
 30
0.0
 10
192.7417590935946
 20
180.9128057565697
 30
0.0
 10
192.7721405294052
 20
180.9377611669909
 30
0.0
 10
192.8564161777131
 20
181.0069645225509
 30
0.0
 10
192.9389692782784
 20
181.0782134035552
 30
0.0
 10
193.0195199170929
 20
181.1517231284717
 30
0.0
 10
193.0429545857966
 20
181.1731605242756
 30
0.0
 10
193.0659089376614
 20
181.1951468536118
 30
0.0
 10
193.0887600680082
 20
181.2171870593834
 30
0.0
 10
193.2250765891615
 20
181.3486660772966
 30
0.0
 10
193.3603029894263
 20
181.481616911958
 30
0.0
 10
193.4836419853353
 20
181.6253403205552
 30
0.0
 10
193.5319793912402
 20
181.6816665188378
 30
0.0
 10
193.5834396810646
 20
181.7350432362404
 30
0.0
 10
193.6305937287891
 20
181.7923386339539
 30
0.0
 10
193.6821625018339
 20
181.8548671170112
 30
0.0
 10
193.7300923927724
 20
181.9204746541584
 30
0.0
 10
193.7792495989776
 20
181.9850271308133
 30
0.0
 10
193.8309906267967
 20
182.0529816392599
 30
0.0
 10
193.8821502947527
 20
182.1212375935614
 30
0.0
 10
193.9311352461835
 20
182.1913452866862
 30
0.0
 10
193.9747372359187
 20
182.2537661105096
 30
0.0
 10
194.016853528226
 20
182.3172635266721
 30
0.0
 10
194.0582162058957
 20
182.3813638345445
 30
0.0
 10
194.1113352719089
 20
182.463701616642
 30
0.0
 10
194.1618059207678
 20
182.5477834783289
 30
0.0
 10
194.2110707862069
 20
182.6327696775806
 30
0.0
 10
194.2435623430021
 20
182.6888170747563
 30
0.0
 10
194.277087428443
 20
182.7441323891413
 30
0.0
 10
194.3078564374956
 20
182.8012779105029
 30
0.0
 10
194.3833470923162
 20
182.9415148285993
 30
0.0
 10
194.4543160593123
 20
183.084507823084
 30
0.0
 10
194.519083854435
 20
183.2311181678282
 30
0.0
 10
194.53484516628
 20
183.2667749061005
 30
0.0
 10
194.5478288698901
 20
183.3039388736476
 30
0.0
 10
194.5629442263316
 20
183.3399831851621
 30
0.0
 10
194.6133502796502
 20
183.4602600812909
 30
0.0
 10
194.6605265559513
 20
183.5821518659283
 30
0.0
 10
194.7034395265895
 20
183.7062614307845
 30
0.0
 10
194.7219784466694
 20
183.7599187929672
 30
0.0
 10
194.7389024782408
 20
183.8143513016342
 30
0.0
 10
194.7560202964331
 20
183.8686761510672
 30
0.0
 10
194.7922583945685
 20
183.9837854039681
 30
0.0
 10
194.8249222061381
 20
184.1003157587567
 30
0.0
 10
194.8545069636177
 20
184.2183318109733
 30
0.0
 10
194.8673830079938
 20
184.2696852655503
 30
0.0
 10
194.8810557307009
 20
184.3207157424255
 30
0.0
 10
194.89263986427
 20
184.3725859613254
 30
0.0
 10
194.9301052776721
 20
184.5403405796102
 30
0.0
 10
194.9629413440159
 20
184.7099254048717
 30
0.0
 10
194.9864971843963
 20
184.8828046026908
 30
0.0
 10
194.9864971843963
 20
184.8828046026908
 30
0.0
 10
196.8288911862143
 20
198.4038139173445
 30
0.0
 10
196.8288911862143
 20
198.4038139173445
 30
0.0
 10
196.9119427163902
 20
199.013314660401
 30
0.0
 10
197.4324944071023
 20
199.4677455305767
 30
0.0
 10
198.0476274922554
 20
199.4677455305767
 30
0.0
 10
198.0476274922554
 20
199.4677455305767
 30
0.0
 10
218.7078588345787
 20
199.4677455305767
 30
0.0
 10
218.7078588345787
 20
199.4677455305767
 30
0.0
 10
219.3229925597059
 20
199.4677455305767
 30
0.0
 10
219.8435451998862
 20
199.0133150702057
 30
0.0
 10
219.9265984626122
 20
198.4038139173445
 30
0.0
 10
219.9265984626122
 20
198.4038139173445
 30
0.0
 10
221.7690355281238
 20
184.8827615389973
 30
0.0
 10
221.7690355281238
 20
184.8827615389973
 30
0.0
 10
221.7926344321978
 20
184.7095808953231
 30
0.0
 10
221.8254920303884
 20
184.5396946242067
 30
0.0
 10
221.8630435711776
 20
184.3716600919137
 30
0.0
 10
221.8747568958275
 20
184.3192300449975
 30
0.0
 10
221.8886664688492
 20
184.2677258674931
 30
0.0
 10
221.9017147679995
 20
184.2158341167465
 30
0.0
 10
221.9311272707049
 20
184.0987224020947
 30
0.0
 10
221.9635111682662
 20
183.9829887256371
 30
0.0
 10
221.9994693523935
 20
183.8687407466076
 30
0.0
 10
222.017060871215
 20
183.8129086678997
 30
0.0
 10
222.034609326343
 20
183.7570765891919
 30
0.0
 10
222.0537080744394
 20
183.7019765932747
 30
0.0
 10
222.094790838101
 20
183.5834437767353
 30
0.0
 10
222.1399861844981
 20
183.467085676721
 30
0.0
 10
222.1879160754367
 20
183.352084083054
 30
0.0
 10
222.2054645305647
 20
183.3099893225936
 30
0.0
 10
222.2209028647079
 20
183.2667964379473
 30
0.0
 10
222.239334125554
 20
183.2251969099629
 30
0.0
 10
222.3042095799106
 20
183.0788018836866
 30
0.0
 10
222.3748555692051
 20
182.9357442936615
 30
0.0
 10
222.4504108195659
 20
182.7957226940329
 30
0.0
 10
222.4813951470864
 20
182.7383403223567
 30
0.0
 10
222.5154154650032
 20
182.6829819442781
 30
0.0
 10
222.5481223402663
 20
182.6267192286346
 30
0.0
 10
222.5971934190843
 20
182.5422928573992
 30
0.0
 10
222.6471688354672
 20
182.4585985689544
 30
0.0
 10
222.7000510511659
 20
182.3767990830266
 30
0.0
 10
222.7428348307233
 20
182.3106101860162
 30
0.0
 10
222.7868459255474
 20
182.2453256265707
 30
0.0
 10
222.8320197400977
 20
182.1809238728433
 30
0.0
 10
222.8789591660842
 20
182.1140244248891
 30
0.0
 10
222.9277072672005
 20
182.0486968017501
 30
0.0
 10
222.9771659192606
 20
181.9837998155467
 30
0.0
 10
223.0290361381604
 20
181.915759179713
 30
0.0
 10
223.080131210576
 20
181.847051056629
 30
0.0
 10
223.1346713784769
 20
181.7812927965544
 30
0.0
 10
223.172219747521
 20
181.7358744952199
 30
0.0
 10
223.2126298776973
 20
181.6931684600326
 30
0.0
 10
223.2513917034854
 20
181.6488348100463
 30
0.0
 10
223.3893087040664
 20
181.4910929104662
 30
0.0
 10
223.5375505012912
 20
181.3428307269833
 30
0.0
 10
223.6881341305466
 20
181.1971318027163
 30
0.0
 10
223.7073015599658
 20
181.1785861356932
 30
0.0
 10
223.7264283627886
 20
181.1600211676548
 30
0.0
 10
223.7461542952619
 20
181.1420553292662
 30
0.0
 10
223.8310328352798
 20
181.0649713177838
 30
0.0
 10
223.9184736650648
 20
180.9908371693105
 30
0.0
 10
224.0074432559714
 20
180.9185116959671
 30
0.0
 10
224.035047083547
 20
180.8960755116194
 30
0.0
 10
224.06280163405
 20
180.8738761775863
 30
0.0
 10
224.0908145667144
 20
180.851892162021
 30
0.0
 10
224.630165796777
 20
180.4283822676499
 30
0.0
 10
225.2387203823996
 20
180.0911935470311
 30
0.0
 10
225.8951617952672
 20
179.8626975889719
 30
0.0
 10
225.8951617952672
 20
179.8626975889719
 30
0.0
 10
225.9726874442435
 20
179.8290248323458
 30
0.0
 10
225.9726874442435
 20
179.8290248323458
 30
0.0
 10
226.2928727775112
 20
179.6899544350677
 30
0.0
 10
226.5000129032432
 20
179.3741490895564
 30
0.0
 10
226.5000129032432
 20
179.025065685427
 30
0.0
 10
226.5000129032432
 20
179.025065685427
 30
0.0
 10
226.5000129032432
 20
178.9843274313139
 30
0.0
 10
226.5000129032432
 20
178.9843274313139
 30
0.0
 10
226.5000129032432
 20
178.4949954312647
 30
0.0
 10
226.1033309400265
 20
178.098313468048
 30
0.0
 10
225.6139989399773
 20
178.098313468048
 30
0.0
 10
225.6139989399773
 20
178.098313468048
 30
0.0
 10
191.1980118066542
 20
178.098313468048
 30
0.0
 10
191.1980118066542
 20
178.098313468048
 30
0.0
  0
SPLINE
  5
90
330
8A
100
AcDbEntity
  8
Calque 4
100
AcDbSpline
210
0.0
220
0.0
230
1.0
 70
     9
 71
     3
 72
   173
 73
   169
 74
     0
 42
0.0000000001
 43
0.0000000001
 40
0.0
 40
0.0
 40
0.0
 40
0.0
 40
1.0
 40
1.0
 40
1.0
 40
2.0
 40
2.0
 40
2.0
 40
3.0
 40
3.0
 40
3.0
 40
4.0
 40
4.0
 40
4.0
 40
5.0
 40
5.0
 40
5.0
 40
6.0
 40
6.0
 40
6.0
 40
7.0
 40
7.0
 40
7.0
 40
8.0
 40
8.0
 40
8.0
 40
9.0
 40
9.0
 40
9.0
 40
10.0
 40
10.0
 40
10.0
 40
11.0
 40
11.0
 40
11.0
 40
12.0
 40
12.0
 40
12.0
 40
13.0
 40
13.0
 40
13.0
 40
14.0
 40
14.0
 40
14.0
 40
15.0
 40
15.0
 40
15.0
 40
16.0
 40
16.0
 40
16.0
 40
17.0
 40
17.0
 40
17.0
 40
18.0
 40
18.0
 40
18.0
 40
19.0
 40
19.0
 40
19.0
 40
20.0
 40
20.0
 40
20.0
 40
21.0
 40
21.0
 40
21.0
 40
22.0
 40
22.0
 40
22.0
 40
23.0
 40
23.0
 40
23.0
 40
24.0
 40
24.0
 40
24.0
 40
25.0
 40
25.0
 40
25.0
 40
26.0
 40
26.0
 40
26.0
 40
27.0
 40
27.0
 40
27.0
 40
28.0
 40
28.0
 40
28.0
 40
29.0
 40
29.0
 40
29.0
 40
30.0
 40
30.0
 40
30.0
 40
31.0
 40
31.0
 40
31.0
 40
32.0
 40
32.0
 40
32.0
 40
33.0
 40
33.0
 40
33.0
 40
34.0
 40
34.0
 40
34.0
 40
35.0
 40
35.0
 40
35.0
 40
36.0
 40
36.0
 40
36.0
 40
37.0
 40
37.0
 40
37.0
 40
38.0
 40
38.0
 40
38.0
 40
39.0
 40
39.0
 40
39.0
 40
40.0
 40
40.0
 40
40.0
 40
41.0
 40
41.0
 40
41.0
 40
42.0
 40
42.0
 40
42.0
 40
43.0
 40
43.0
 40
43.0
 40
44.0
 40
44.0
 40
44.0
 40
45.0
 40
45.0
 40
45.0
 40
46.0
 40
46.0
 40
46.0
 40
47.0
 40
47.0
 40
47.0
 40
48.0
 40
48.0
 40
48.0
 40
49.0
 40
49.0
 40
49.0
 40
50.0
 40
50.0
 40
50.0
 40
51.0
 40
51.0
 40
51.0
 40
52.0
 40
52.0
 40
52.0
 40
53.0
 40
53.0
 40
53.0
 40
54.0
 40
54.0
 40
54.0
 40
55.0
 40
55.0
 40
55.0
 40
56.0
 40
56.0
 40
56.0
 40
56.0
 10
145.0100042091504
 20
178.0983134681558
 30
0.0
 10
144.5206727150135
 20
178.0983134680961
 30
0.0
 10
144.1239916460821
 20
178.4949959371745
 30
0.0
 10
144.1239933733094
 20
178.9843274313081
 30
0.0
 10
144.1239933733094
 20
178.9843274313081
 30
0.0
 10
144.123993664171
 20
179.066729808944
 30
0.0
 10
144.123993664171
 20
179.066729808944
 30
0.0
 10
144.1239949644239
 20
179.4350975710634
 30
0.0
 10
144.3550559532081
 20
179.7598221575002
 30
0.0
 10
144.6987374155928
 20
179.8924036817948
 30
0.0
 10
144.7037647881951
 20
179.8943430843983
 30
0.0
 10
144.7082342512501
 20
179.89717529744
 30
0.0
 10
144.7132953604833
 20
179.8990433463413
 30
0.0
 10
144.8287921866263
 20
179.9416118074309
 30
0.0
 10
144.942135828091
 20
179.988895742966
 30
0.0
 10
145.0544674727569
 20
180.0380529491711
 30
0.0
 10
145.0785400774601
 20
180.0485820222479
 30
0.0
 10
145.1027849369375
 20
180.0586804583891
 30
0.0
 10
145.1266852868665
 20
180.0695109773208
 30
0.0
 10
145.2360024729828
 20
180.1190126930745
 30
0.0
 10
145.3436832387436
 20
180.1716365266117
 30
0.0
 10
145.4496845204554
 20
180.2271886913113
 30
0.0
 10
145.4702689659798
 20
180.2379976783963
 30
0.0
 10
145.490573497496
 20
180.2493018979573
 30
0.0
 10
145.5109426245525
 20
180.2605199901312
 30
0.0
 10
145.8363534249811
 20
180.4399448693723
 30
0.0
 10
146.1478115886945
 20
180.6435284807038
 30
0.0
 10
146.4394604533677
 20
180.873811582046
 30
0.0
 10
146.4768828030762
 20
180.9033748076787
 30
0.0
 10
146.5145420030994
 20
180.9326150556098
 30
0.0
 10
146.5511461426301
 20
180.9631687461946
 30
0.0
 10
146.6260339057408
 20
181.0255249744776
 30
0.0
 10
146.699069930028
 20
181.0900128555921
 30
0.0
 10
146.7709647664359
 20
181.1557495838201
 30
0.0
 10
146.8198420586328
 20
181.2005788888219
 30
0.0
 10
146.8675350992568
 20
181.2466139772436
 30
0.0
 10
146.9149912895661
 20
181.2929505115202
 30
0.0
 10
146.9798667439227
 20
181.3561680136745
 30
0.0
 10
147.0450005804407
 20
181.4191486655142
 30
0.0
 10
147.1071199584091
 20
181.4851437759035
 30
0.0
 10
147.1872614921347
 20
181.5703237617763
 30
0.0
 10
147.2638072074476
 20
181.6588196520537
 30
0.0
 10
147.3391256074939
 20
181.7484351983638
 30
0.0
 10
147.400577498212
 20
181.8215573500382
 30
0.0
 10
147.4593594399291
 20
181.8968542182377
 30
0.0
 10
147.5174738943959
 20
181.9727970418407
 30
0.0
 10
147.575954390258
 20
182.0492350979196
 30
0.0
 10
147.6337028033296
 20
182.1261253227811
 30
0.0
 10
147.6886736081661
 20
182.2053194552482
 30
0.0
 10
147.7290888845774
 20
182.263541568949
 30
0.0
 10
147.7678031450929
 20
182.3229909979163
 30
0.0
 10
147.8062374916002
 20
182.3826557453515
 30
0.0
 10
147.861380551211
 20
182.4682233044664
 30
0.0
 10
147.9139613210546
 20
182.5553842202432
 30
0.0
 10
147.9649702660831
 20
182.6438155149802
 30
0.0
 10
147.9959976572971
 20
182.6976451319372
 30
0.0
 10
148.0278217268421
 20
182.7509795164182
 30
0.0
 10
148.057277293241
 20
182.8058211301741
 30
0.0
 10
148.1330478620697
 20
182.9468977902951
 30
0.0
 10
148.2047273800097
 20
183.0904936764896
 30
0.0
 10
148.2696458980599
 20
183.2379868269519
 30
0.0
 10
148.2814238182501
 20
183.2647509125029
 30
0.0
 10
148.2909408945281
 20
183.2926777177802
 30
0.0
 10
148.302352773323
 20
183.3196355899523
 30
0.0
 10
148.356677622756
 20
183.4480299923182
 30
0.0
 10
148.4068037620664
 20
183.5785560475156
 30
0.0
 10
148.4525589364799
 20
183.7113429466252
 30
0.0
 10
148.4704088374628
 20
183.7631270381379
 30
0.0
 10
148.4865361907031
 20
183.8157508716751
 30
0.0
 10
148.5030511171856
 20
183.8681809185912
 30
0.0
 10
148.5396337248696
 20
183.9844098275248
 30
0.0
 10
148.5726635778344
 20
184.1020813701929
 30
0.0
 10
148.6024851856286
 20
184.2212816739825
 30
0.0
 10
148.6151459115369
 20
184.2719030457689
 30
0.0
 10
148.628517188389
 20
184.3222445035471
 30
0.0
 10
148.6399290671839
 20
184.3733611078095
 30
0.0
 10
148.6773083531988
 20
184.5408788757798
 30
0.0
 10
148.7101013558491
 20
184.710183787033
 30
0.0
 10
148.7336141325359
 20
184.8828046026908
 30
0.0
 10
148.7336141325359
 20
184.8828046026908
 30
0.0
 10
150.5760286721461
 20
198.4038066222364
 30
0.0
 10
150.5760286721461
 20
198.4038066222364
 30
0.0
 10
150.6590817747323
 20
199.0133117817141
 30
0.0
 10
151.1796375843667
 20
199.4677455305767
 30
0.0
 10
151.7947752578014
 20
199.4677455305767
 30
0.0
 10
151.7947752578014
 20
199.4677455305767
 30
0.0
 10
172.455001160628
 20
199.4677455305767
 30
0.0
 10
172.455001160628
 20
199.4677455305767
 30
0.0
 10
173.0701341448213
 20
199.4677455305767
 30
0.0
 10
173.5906856857468
 20
199.0133145957511
 30
0.0
 10
173.6737369425999
 20
198.4038139173448
 30
0.0
 10
173.6737369425999
 20
198.4038139173448
 30
0.0
 10
175.5161309444179
 20
184.8827615389973
 30
0.0
 10
175.5161309444179
 20
184.8827615389973
 30
0.0
 10
175.5397944440323
 20
184.7091071946939
 30
0.0
 10
175.5726951059164
 20
184.5387687547951
 30
0.0
 10
175.6103973696331
 20
184.3702820537196
 30
0.0
 10
175.6221752898233
 20
184.317593624642
 30
0.0
 10
175.636278649466
 20
184.2658310649762
 30
0.0
 10
175.6494130760036
 20
184.2136809320682
 30
0.0
 10
175.6787825150153
 20
184.0968921951182
 30
0.0
 10
175.7110156896492
 20
183.9814814963624
 30
0.0
 10
175.7469092782361
 20
183.8675564950345
 30
0.0
 10
175.7648022429127
 20
183.8107554832214
 30
0.0
 10
175.7828674623634
 20
183.7540621306423
 30
0.0
 10
175.8023322518551
 20
183.6980147334666
 30
0.0
 10
175.8423384231775
 20
183.5828408850254
 30
0.0
 10
175.8863064543081
 20
183.4697771575688
 30
0.0
 10
175.9327937115122
 20
183.3578976816854
 30
0.0
 10
175.9518493959149
 20
183.3120133161912
 30
0.0
 10
175.9689672141073
 20
183.2651169538982
 30
0.0
 10
175.9890994908492
 20
183.2198139482672
 30
0.0
 10
176.0544701776818
 20
183.0726437755067
 30
0.0
 10
176.1251807625165
 20
182.9285311249893
 30
0.0
 10
176.2013819682809
 20
182.7878205062637
 30
0.0
 10
176.2311389805348
 20
182.7328712332739
 30
0.0
 10
176.2641903653464
 20
182.680118208656
 30
0.0
 10
176.2955407342621
 20
182.6262024643119
 30
0.0
 10
176.346312828976
 20
182.5388908256076
 30
0.0
 10
176.3978600701741
 20
182.4522466741535
 30
0.0
 10
176.4526586202363
 20
182.3677557073778
 30
0.0
 10
176.4954423997938
 20
182.3018251925288
 30
0.0
 10
176.5398410678599
 20
182.2371219929465
 30
0.0
 10
176.5849933505635
 20
182.1729786213805
 30
0.0
 10
176.6325141364132
 20
182.1054978135631
 30
0.0
 10
176.6815206196908
 20
182.0393304483996
 30
0.0
 10
176.7316036953077
 20
181.9738736341798
 30
0.0
 10
176.7837753600624
 20
181.9057038072654
 30
0.0
 10
176.835667110809
 20
181.8372540663429
 30
0.0
 10
176.8905302564116
 20
181.7713666151874
 30
0.0
 10
176.9328833990334
 20
181.7204868612397
 30
0.0
 10
176.9777772995755
 20
181.6719971422848
 30
0.0
 10
177.0217022670125
 20
181.6225169583779
 30
0.0
 10
177.1561255864776
 20
181.4711050118011
 30
0.0
 10
177.2967285459693
 20
181.3256143230897
 30
0.0
 10
177.4449968429158
 20
181.1880473539943
 30
0.0
 10
177.4669162629407
 20
181.1676997587845
 30
0.0
 10
177.4877590906264
 20
181.1461679120018
 30
0.0
 10
177.5099799565063
 20
181.1261217626469
 30
0.0
 10
177.596064279944
 20
181.0484994549949
 30
0.0
 10
177.6853137848587
 20
180.9744729657556
 30
0.0
 10
177.7755752865723
 20
180.9017168554765
 30
0.0
 10
177.8048370663501
 20
180.8781394832493
 30
0.0
 10
177.8339050595069
 20
180.8544544517882
 30
0.0
 10
177.8635974762204
 20
180.8313938438838
 30
0.0
 10
177.9593711307103
 20
180.7569797814024
 30
0.0
 10
178.0568458010961
 20
180.684654308059
 30
0.0
 10
178.1568827612491
 20
180.6158385257411
 30
0.0
 10
178.171459821521
 20
180.6058046851403
 30
0.0
 10
178.1864029231883
 20
180.5963522044027
 30
0.0
 10
178.2010661108474
 20
180.5864475548825
 30
0.0
 10
178.661115549209
 20
180.2756784102662
 30
0.0
 10
179.1631305569502
 20
180.0241649079962
 30
0.0
 10
179.696022232978
 20
179.8441586688919
 30
0.0
 10
179.696022232978
 20
179.8441586688919
 30
0.0
 10
179.7246890711593
 20
179.8333534758127
 30
0.0
 10
179.7246890711593
 20
179.8333534758127
 30
0.0
 10
180.0780769430825
 20
179.7001534289969
 30
0.0
 10
180.3120053057407
 20
179.3619865153992
 30
0.0
 10
180.3120053057407
 20
178.9843289449805
 30
0.0
 10
180.3120053057407
 20
178.9843289449805
 30
0.0
 10
180.3120053057407
 20
178.9843274313139
 30
0.0
 10
180.3120053057407
 20
178.9843274313139
 30
0.0
 10
180.3120053057407
 20
178.4949954336775
 30
0.0
 10
179.9153233445107
 20
178.0983134724
 30
0.0
 10
179.4259913468743
 20
178.0983134723403
 30
0.0
 10
179.4259913468743
 20
178.0983134723403
 30
0.0
 10
145.0100042091504
 20
178.0983134681558
 30
0.0
 10
145.0100042091504
 20
178.0983134681558
 30
0.0
  0
SPLINE
  5
91
330
8A
100
AcDbEntity
  8
Calque 4
100
AcDbSpline
210
0.0
220
0.0
230
1.0
 70
     9
 71
     3
 72
   113
 73
   109
 74
     0
 42
0.0000000001
 43
0.0000000001
 40
0.0
 40
0.0
 40
0.0
 40
0.0
 40
1.0
 40
1.0
 40
1.0
 40
2.0
 40
2.0
 40
2.0
 40
3.0
 40
3.0
 40
3.0
 40
4.0
 40
4.0
 40
4.0
 40
5.0
 40
5.0
 40
5.0
 40
6.0
 40
6.0
 40
6.0
 40
7.0
 40
7.0
 40
7.0
 40
8.0
 40
8.0
 40
8.0
 40
9.0
 40
9.0
 40
9.0
 40
10.0
 40
10.0
 40
10.0
 40
11.0
 40
11.0
 40
11.0
 40
12.0
 40
12.0
 40
12.0
 40
13.0
 40
13.0
 40
13.0
 40
14.0
 40
14.0
 40
14.0
 40
15.0
 40
15.0
 40
15.0
 40
16.0
 40
16.0
 40
16.0
 40
17.0
 40
17.0
 40
17.0
 40
18.0
 40
18.0
 40
18.0
 40
19.0
 40
19.0
 40
19.0
 40
20.0
 40
20.0
 40
20.0
 40
21.0
 40
21.0
 40
21.0
 40
22.0
 40
22.0
 40
22.0
 40
23.0
 40
23.0
 40
23.0
 40
24.0
 40
24.0
 40
24.0
 40
25.0
 40
25.0
 40
25.0
 40
26.0
 40
26.0
 40
26.0
 40
27.0
 40
27.0
 40
27.0
 40
28.0
 40
28.0
 40
28.0
 40
29.0
 40
29.0
 40
29.0
 40
30.0
 40
30.0
 40
30.0
 40
31.0
 40
31.0
 40
31.0
 40
32.0
 40
32.0
 40
32.0
 40
33.0
 40
33.0
 40
33.0
 40
34.0
 40
34.0
 40
34.0
 40
35.0
 40
35.0
 40
35.0
 40
36.0
 40
36.0
 40
36.0
 40
36.0
 10
113.8161884426913
 20
178.0983133934903
 30
0.0
 10
112.9109319570011
 20
178.0983134302108
 30
0.0
 10
112.177076598281
 20
178.8321688186993
 30
0.0
 10
112.177076598281
 20
179.7374253043895
 30
0.0
 10
112.177076598281
 20
179.7374253043895
 30
0.0
 10
112.177076598281
 20
182.479462928487
 30
0.0
 10
112.177076598281
 20
182.479462928487
 30
0.0
 10
112.177076598281
 20
182.479462928487
 30
0.0
 10
112.177076598281
 20
186.564577589057
 30
0.0
 10
112.177076598281
 20
186.564577589057
 30
0.0
 10
112.177076598281
 20
187.7363474539702
 30
0.0
 10
111.2271694383042
 20
188.686254613947
 30
0.0
 10
110.055399573391
 20
188.686254613947
 30
0.0
 10
110.055399573391
 20
188.686254613947
 30
0.0
 10
105.970284912821
 20
188.686254613947
 30
0.0
 10
105.970284912821
 20
188.686254613947
 30
0.0
 10
105.970284912821
 20
188.686254613947
 30
0.0
 10
104.4194370331537
 20
188.686254613947
 30
0.0
 10
104.4194370331537
 20
188.686254613947
 30
0.0
 10
103.6741198190588
 20
188.686254613947
 30
0.0
 10
103.1000644516336
 20
189.3438372131957
 30
0.0
 10
103.2006934858997
 20
190.0823299667752
 30
0.0
 10
103.2006934858997
 20
190.0823299667752
 30
0.0
 10
104.3346015568301
 20
198.4038139173445
 30
0.0
 10
104.3346015568301
 20
198.4038139173445
 30
0.0
 10
104.4176538117248
 20
199.0133148318209
 30
0.0
 10
104.9382058995947
 20
199.4677455305767
 30
0.0
 10
105.5533392524467
 20
199.4677455305767
 30
0.0
 10
105.5533392524467
 20
199.4677455305767
 30
0.0
 10
126.213547222402
 20
199.4677455305767
 30
0.0
 10
126.213547222402
 20
199.4677455305767
 30
0.0
 10
126.8286691888942
 20
199.4677455305767
 30
0.0
 10
127.349212318471
 20
199.0133247090871
 30
0.0
 10
127.4322657695344
 20
198.4038354491915
 30
0.0
 10
127.4322657695344
 20
198.4038354491915
 30
0.0
 10
129.2747458987396
 20
184.8827615389973
 30
0.0
 10
129.2747458987396
 20
184.8827615389973
 30
0.0
 10
129.2984524620475
 20
184.7088272806857
 30
0.0
 10
129.3313961876252
 20
184.5381873949319
 30
0.0
 10
129.3691630468822
 20
184.369442311695
 30
0.0
 10
129.3810701581531
 20
184.3163232456818
 30
0.0
 10
129.3953673044169
 20
184.2641946446207
 30
0.0
 10
129.4086093901883
 20
184.2116138747771
 30
0.0
 10
129.4379357655065
 20
184.0951911792224
 30
0.0
 10
129.4700182172129
 20
183.9800388626279
 30
0.0
 10
129.5058256784127
 20
183.8664583708485
 30
0.0
 10
129.5239770252506
 20
183.8089037443981
 30
0.0
 10
129.5424298179435
 20
183.7515644364155
 30
0.0
 10
129.5621960532901
 20
183.6947634246024
 30
0.0
 10
129.6015347373623
 20
183.5816996971459
 30
0.0
 10
129.6447060901619
 20
183.4706384314401
 30
0.0
 10
129.6902890098011
 20
183.3607614173075
 30
0.0
 10
129.7103351591559
 20
183.3124439531268
 30
0.0
 10
129.7285726333809
 20
183.2632006195346
 30
0.0
 10
129.749781502462
 20
183.2155291107574
 30
0.0
 10
129.8157766128513
 20
183.0672392819642
 30
0.0
 10
129.8868101753878
 20
182.9218347206398
 30
0.0
 10
129.9637865276364
 20
182.7800905732686
 30
0.0
 10
129.9909166545827
 20
182.7301366887325
 30
0.0
 10
130.0214057496271
 20
182.6823790525682
 30
0.0
 10
130.0498493192272
 20
182.6332864419034
 30
0.0
 10
130.1036574043375
 20
182.5403980548824
 30
0.0
 10
130.1584559543998
 20
182.4482632824987
 30
0.0
 10
130.2168503228747
 20
182.3585616088015
 30
0.0
 10
130.2585144463995
 20
182.2945904920098
 30
0.0
 10
130.3020733724411
 20
182.2320404771057
 30
0.0
 10
130.3459552761845
 20
182.169748844363
 30
0.0
 10
130.3957153740995
 20
182.0991459187622
 30
0.0
 10
130.4468104465152
 20
182.029770308428
 30
0.0
 10
130.499369684512
 20
181.9614066948925
 30
0.0
 10
130.5499910562984
 20
181.8955623074307
 30
0.0
 10
130.6006339599316
 20
181.8297609836624
 30
0.0
 10
130.6537745577915
 20
181.7660697808789
 30
0.0
 10
130.7021135538189
 20
181.7081060493396
 30
0.0
 10
130.7529287122264
 20
181.6525108209463
 30
0.0
 10
130.8033132336982
 20
181.5963988282303
 30
0.0
 10
130.9423659002216
 20
181.4414556587812
 30
0.0
 10
131.0876197386184
 20
181.2924337471974
 30
0.0
 10
131.2412064017202
 20
181.1522183609477
 30
0.0
 10
131.256192567081
 20
181.1385241063939
 30
0.0
 10
131.2701236719495
 20
181.1237532595008
 30
0.0
 10
131.2852605602379
 20
181.1102312597212
 30
0.0
 10
131.3682442977388
 20
181.0359248564737
 30
0.0
 10
131.4547161944185
 20
180.9656449085746
 30
0.0
 10
131.5415541324936
 20
180.8958386613048
 30
0.0
 10
131.5769524886046
 20
180.8673950917047
 30
0.0
 10
131.6118986759331
 20
180.8385424170157
 30
0.0
 10
131.647899923754
 20
180.810852462053
 30
0.0
 10
131.7383336802418
 20
180.7413261287913
 30
0.0
 10
131.8306407073997
 20
180.6741682986757
 30
0.0
 10
131.9247994733809
 20
180.6096158220208
 30
0.0
 10
131.9539966576184
 20
180.5896127363596
 30
0.0
 10
131.9836244787915
 20
180.570341733489
 30
0.0
 10
132.0131661725776
 20
180.5508338803038
 30
0.0
 10
132.4654426142505
 20
180.251907251418
 30
0.0
 10
132.9571653992296
 20
180.0099969528131
 30
0.0
 10
133.4782576232204
 20
179.8362780129694
 30
0.0
 10
133.4869349574739
 20
179.8333927455005
 30
0.0
 10
133.4952677821788
 20
179.8296892678539
 30
0.0
 10
133.5039666482791
 20
179.8268255322317
 30
0.0
 10
133.947962574061
 20
179.6809965766048
 30
0.0
 10
134.2247841564693
 20
179.2210939393398
 30
0.0
 10
134.0895288666817
 20
178.7365574656136
 30
0.0
 10
133.9807942502433
 20
178.3470282449535
 30
0.0
 10
133.5963138495219
 20
178.0983125911252
 30
0.0
 10
133.1918929913054
 20
178.0983126075302
 30
0.0
 10
133.1918929913054
 20
178.0983126075302
 30
0.0
 10
113.8161884426913
 20
178.0983133934903
 30
0.0
 10
113.8161884426913
 20
178.0983133934903
 30
0.0
  0
SPLINE
  5
92
330
8A
100
AcDbEntity
  8
Calque 4
100
AcDbSpline
210
0.0
220
0.0
230
1.0
 70
     9
 71
     3
 72
   350
 73
   346
 74
     0
 42
0.0000000001
 43
0.0000000001
 40
0.0
 40
0.0
 40
0.0
 40
0.0
 40
1.0
 40
1.0
 40
1.0
 40
2.0
 40
2.0
 40
2.0
 40
3.0
 40
3.0
 40
3.0
 40
4.0
 40
4.0
 40
4.0
 40
5.0
 40
5.0
 40
5.0
 40
6.0
 40
6.0
 40
6.0
 40
7.0
 40
7.0
 40
7.0
 40
8.0
 40
8.0
 40
8.0
 40
9.0
 40
9.0
 40
9.0
 40
10.0
 40
10.0
 40
10.0
 40
11.0
 40
11.0
 40
11.0
 40
12.0
 40
12.0
 40
12.0
 40
13.0
 40
13.0
 40
13.0
 40
14.0
 40
14.0
 40
14.0
 40
15.0
 40
15.0
 40
15.0
 40
16.0
 40
16.0
 40
16.0
 40
17.0
 40
17.0
 40
17.0
 40
18.0
 40
18.0
 40
18.0
 40
19.0
 40
19.0
 40
19.0
 40
20.0
 40
20.0
 40
20.0
 40
21.0
 40
21.0
 40
21.0
 40
22.0
 40
22.0
 40
22.0
 40
23.0
 40
23.0
 40
23.0
 40
24.0
 40
24.0
 40
24.0
 40
25.0
 40
25.0
 40
25.0
 40
26.0
 40
26.0
 40
26.0
 40
27.0
 40
27.0
 40
27.0
 40
28.0
 40
28.0
 40
28.0
 40
29.0
 40
29.0
 40
29.0
 40
30.0
 40
30.0
 40
30.0
 40
31.0
 40
31.0
 40
31.0
 40
32.0
 40
32.0
 40
32.0
 40
33.0
 40
33.0
 40
33.0
 40
34.0
 40
34.0
 40
34.0
 40
35.0
 40
35.0
 40
35.0
 40
36.0
 40
36.0
 40
36.0
 40
37.0
 40
37.0
 40
37.0
 40
38.0
 40
38.0
 40
38.0
 40
39.0
 40
39.0
 40
39.0
 40
40.0
 40
40.0
 40
40.0
 40
41.0
 40
41.0
 40
41.0
 40
42.0
 40
42.0
 40
42.0
 40
43.0
 40
43.0
 40
43.0
 40
44.0
 40
44.0
 40
44.0
 40
45.0
 40
45.0
 40
45.0
 40
46.0
 40
46.0
 40
46.0
 40
47.0
 40
47.0
 40
47.0
 40
48.0
 40
48.0
 40
48.0
 40
49.0
 40
49.0
 40
49.0
 40
50.0
 40
50.0
 40
50.0
 40
51.0
 40
51.0
 40
51.0
 40
52.0
 40
52.0
 40
52.0
 40
53.0
 40
53.0
 40
53.0
 40
54.0
 40
54.0
 40
54.0
 40
55.0
 40
55.0
 40
55.0
 40
56.0
 40
56.0
 40
56.0
 40
57.0
 40
57.0
 40
57.0
 40
58.0
 40
58.0
 40
58.0
 40
59.0
 40
59.0
 40
59.0
 40
60.0
 40
60.0
 40
60.0
 40
61.0
 40
61.0
 40
61.0
 40
62.0
 40
62.0
 40
62.0
 40
63.0
 40
63.0
 40
63.0
 40
64.0
 40
64.0
 40
64.0
 40
65.0
 40
65.0
 40
65.0
 40
66.0
 40
66.0
 40
66.0
 40
67.0
 40
67.0
 40
67.0
 40
68.0
 40
68.0
 40
68.0
 40
69.0
 40
69.0
 40
69.0
 40
70.0
 40
70.0
 40
70.0
 40
71.0
 40
71.0
 40
71.0
 40
72.0
 40
72.0
 40
72.0
 40
73.0
 40
73.0
 40
73.0
 40
74.0
 40
74.0
 40
74.0
 40
75.0
 40
75.0
 40
75.0
 40
76.0
 40
76.0
 40
76.0
 40
77.0
 40
77.0
 40
77.0
 40
78.0
 40
78.0
 40
78.0
 40
79.0
 40
79.0
 40
79.0
 40
80.0
 40
80.0
 40
80.0
 40
81.0
 40
81.0
 40
81.0
 40
82.0
 40
82.0
 40
82.0
 40
83.0
 40
83.0
 40
83.0
 40
84.0
 40
84.0
 40
84.0
 40
85.0
 40
85.0
 40
85.0
 40
86.0
 40
86.0
 40
86.0
 40
87.0
 40
87.0
 40
87.0
 40
88.0
 40
88.0
 40
88.0
 40
89.0
 40
89.0
 40
89.0
 40
90.0
 40
90.0
 40
90.0
 40
91.0
 40
91.0
 40
91.0
 40
92.0
 40
92.0
 40
92.0
 40
93.0
 40
93.0
 40
93.0
 40
94.0
 40
94.0
 40
94.0
 40
95.0
 40
95.0
 40
95.0
 40
96.0
 40
96.0
 40
96.0
 40
97.0
 40
97.0
 40
97.0
 40
98.0
 40
98.0
 40
98.0
 40
99.0
 40
99.0
 40
99.0
 40
100.0
 40
100.0
 40
100.0
 40
101.0
 40
101.0
 40
101.0
 40
102.0
 40
102.0
 40
102.0
 40
103.0
 40
103.0
 40
103.0
 40
104.0
 40
104.0
 40
104.0
 40
105.0
 40
105.0
 40
105.0
 40
106.0
 40
106.0
 40
106.0
 40
107.0
 40
107.0
 40
107.0
 40
108.0
 40
108.0
 40
108.0
 40
109.0
 40
109.0
 40
109.0
 40
110.0
 40
110.0
 40
110.0
 40
111.0
 40
111.0
 40
111.0
 40
112.0
 40
112.0
 40
112.0
 40
113.0
 40
113.0
 40
113.0
 40
114.0
 40
114.0
 40
114.0
 40
115.0
 40
115.0
 40
115.0
 40
115.0
 10
290.5177246114141
 20
184.1001435039824
 30
0.0
 10
290.5177246114141
 20
184.1001435039824
 30
0.0
 10
282.7570226073321
 20
184.1001435039824
 30
0.0
 10
282.7570226073321
 20
184.1001435039824
 30
0.0
 10
282.7570226073321
 20
184.1001435039824
 30
0.0
 10
274.2665417202403
 20
184.1001435039824
 30
0.0
 10
274.2665417202403
 20
184.1001435039824
 30
0.0
 10
273.4017728020583
 20
184.1001435039824
 30
0.0
 10
272.6699683167653
 20
184.7389925716369
 30
0.0
 10
272.5532109757597
 20
185.5958432034121
 30
0.0
 10
272.5532109757597
 20
185.5958432034121
 30
0.0
 10
270.2418717244148
 20
202.5581385135581
 30
0.0
 10
270.2418717244148
 20
202.5581385135581
 30
0.0
 10
270.1251129449175
 20
203.4149997020391
 30
0.0
 10
269.3932994435323
 20
204.0538566405413
 30
0.0
 10
268.5285198710889
 20
204.0538566405413
 30
0.0
 10
268.5285198710889
 20
204.0538566405413
 30
0.0
 10
240.7326879756271
 20
204.0538566405413
 30
0.0
 10
240.7326879756271
 20
204.0538566405413
 30
0.0
 10
239.867888299442
 20
204.0538566405413
 30
0.0
 10
239.1360577493518
 20
203.4149849283943
 30
0.0
 10
239.0192961100201
 20
202.5581038400801
 30
0.0
 10
239.0192961100201
 20
202.5581038400801
 30
0.0
 10
236.7079600171191
 20
185.5958532407504
 30
0.0
 10
236.7079600171191
 20
185.5958532407504
 30
0.0
 10
236.5912017394293
 20
184.7389968225985
 30
0.0
 10
235.8593922592164
 20
184.1001435039824
 30
0.0
 10
234.9946174811748
 20
184.1001435039824
 30
0.0
 10
234.9946174811748
 20
184.1001435039824
 30
0.0
 10
228.0137017320749
 20
184.1001435039824
 30
0.0
 10
228.0137017320749
 20
184.1001435039824
 30
0.0
 10
227.1489329255459
 20
184.1001435039824
 30
0.0
 10
226.4171284986834
 20
184.7389924111364
 30
0.0
 10
226.3003710272422
 20
185.5958429124542
 30
0.0
 10
226.3003710272422
 20
185.5958429124542
 30
0.0
 10
223.9890335269721
 20
202.5581038400801
 30
0.0
 10
223.9890335269721
 20
202.5581038400801
 30
0.0
 10
223.8722718876391
 20
203.4149849283943
 30
0.0
 10
223.1404413375501
 20
204.0538566405413
 30
0.0
 10
222.275641661365
 20
204.0538566405413
 30
0.0
 10
222.275641661365
 20
204.0538566405413
 30
0.0
 10
194.4798097659031
 20
204.0538566405413
 30
0.0
 10
194.4798097659031
 20
204.0538566405413
 30
0.0
 10
193.6150275815997
 20
204.0538566405413
 30
0.0
 10
192.8832121706105
 20
203.4149971219656
 30
0.0
 10
192.7664542518537
 20
202.5581331802019
 30
0.0
 10
192.7664542518537
 20
202.5581331802019
 30
0.0
 10
190.4551415608004
 20
185.5958532407504
 30
0.0
 10
190.4551415608004
 20
185.5958532407504
 30
0.0
 10
190.3383847133216
 20
184.73899716089
 30
0.0
 10
189.6065760168889
 20
184.1001435039824
 30
0.0
 10
188.7418017671414
 20
184.1001435039824
 30
0.0
 10
188.7418017671414
 20
184.1001435039824
 30
0.0
 10
181.7608516137608
 20
184.1001435039824
 30
0.0
 10
181.7608516137608
 20
184.1001435039824
 30
0.0
 10
180.8960648018074
 20
184.1001435039824
 30
0.0
 10
180.164245402592
 20
184.7390062852112
 30
0.0
 10
180.0474865680138
 20
185.5958747725972
 30
0.0
 10
180.0474865680138
 20
185.5958747725972
 30
0.0
 10
177.7361733746771
 20
202.5581153345337
 30
0.0
 10
177.7361733746771
 20
202.5581153345337
 30
0.0
 10
177.6194137565664
 20
203.4149895721007
 30
0.0
 10
176.8875894463358
 20
204.0538566405413
 30
0.0
 10
176.0227968310643
 20
204.0538566405413
 30
0.0
 10
176.0227968310643
 20
204.0538566405413
 30
0.0
 10
148.2269697777357
 20
204.0538566405413
 30
0.0
 10
148.2269697777357
 20
204.0538566405413
 30
0.0
 10
147.3621796626886
 20
204.0538566405413
 30
0.0
 10
146.6303572036435
 20
203.4149919916953
 30
0.0
 10
146.5135968552159
 20
202.5581203769717
 30
0.0
 10
146.5135968552159
 20
202.5581203769717
 30
0.0
 10
144.2022571015702
 20
185.5958429124536
 30
0.0
 10
144.2022571015702
 20
185.5958429124536
 30
0.0
 10
144.0854996301296
 20
184.7389924111364
 30
0.0
 10
143.3536952032671
 20
184.1001435039824
 30
0.0
 10
142.4889263967388
 20
184.1001435039824
 30
0.0
 10
142.4889263967388
 20
184.1001435039824
 30
0.0
 10
135.51941210269
 20
184.1001435039824
 30
0.0
 10
135.51941210269
 20
184.1001435039824
 30
0.0
 10
134.6546448232962
 20
184.1001435039824
 30
0.0
 10
133.9228411956115
 20
184.7389902159129
 30
0.0
 10
133.8060819401623
 20
185.5958389328858
 30
0.0
 10
133.8060819401623
 20
185.5958389328858
 30
0.0
 10
131.4947008338943
 20
202.5581253719266
 30
0.0
 10
131.4947008338943
 20
202.5581253719266
 30
0.0
 10
131.3779387806711
 20
203.4149946206265
 30
0.0
 10
130.6461176175781
 20
204.0538566405413
 30
0.0
 10
129.781329616712
 20
204.0538566405413
 30
0.0
 10
129.781329616712
 20
204.0538566405413
 30
0.0
 10
101.9855632002125
 20
204.0538566405413
 30
0.0
 10
101.9855632002125
 20
204.0538566405413
 30
0.0
 10
101.1207720264489
 20
204.0538566405413
 30
0.0
 10
100.3889484705756
 20
203.4149916442576
 30
0.0
 10
100.2721871684484
 20
202.5581190909889
 30
0.0
 10
100.2721871684484
 20
202.5581190909889
 30
0.0
 10
98.02445700681261
 20
186.0627713382357
 30
0.0
 10
98.02445700681261
 20
186.0627713382357
 30
0.0
 10
97.88298915156026
 20
185.0245855684082
 30
0.0
 10
98.69000563977664
 20
184.1001435039824
 30
0.0
 10
99.73778560080901
 20
184.1001435039824
 30
0.0
 10
99.73778560080901
 20
184.1001435039824
 30
0.0
 10
105.8617859368824
 20
184.1001435039824
 30
0.0
 10
105.8617859368824
 20
184.1001435039824
 30
0.0
 10
106.8167854328585
 20
184.1001435039824
 30
0.0
 10
107.5909654883165
 20
183.3259634485245
 30
0.0
 10
107.5909654883165
 20
182.3709639525484
 30
0.0
 10
107.5909654883165
 20
182.3709639525484
 30
0.0
 10
107.5909654883165
 20
179.8865979389008
 30
0.0
 10
107.5909654883165
 20
179.8865979389008
 30
0.0
 10
107.5909654883165
 20
178.9315984429247
 30
0.0
 10
106.8167854328585
 20
178.1574183874668
 30
0.0
 10
105.8617859368824
 20
178.1574183874668
 30
0.0
 10
105.8617859368824
 20
178.1574183874668
 30
0.0
 10
99.46032722377793
 20
178.1574183874668
 30
0.0
 10
99.46032722377793
 20
178.1574183874668
 30
0.0
 10
98.85684043116395
 20
178.1574183874668
 30
0.0
 10
98.29702873282982
 20
177.8427334094021
 30
0.0
 10
97.98335271130422
 20
177.3271719073684
 30
0.0
 10
97.98335271130422
 20
177.3271719073684
 30
0.0
 10
97.7570314697701
 20
176.9551877223485
 30
0.0
 10
97.7570314697701
 20
176.9551877223485
 30
0.0
 10
97.7570314697701
 20
176.9551877223485
 30
0.0
 10
96.79384736763459
 20
175.3724677927312
 30
0.0
 10
96.79384736763459
 20
175.3724677927312
 30
0.0
 10
96.48007463395844
 20
174.8568712854187
 30
0.0
 10
95.92017864435696
 20
174.5421782489392
 30
0.0
 10
95.31661167479061
 20
174.5421782489392
 30
0.0
 10
95.31661167479061
 20
174.5421782489392
 30
0.0
 10
90.66052234339688
 20
174.5421782489392
 30
0.0
 10
90.66052234339688
 20
174.5421782489392
 30
0.0
 10
90.0569648281615
 20
174.5421782489392
 30
0.0
 10
89.49708024255814
 20
174.8568753197248
 30
0.0
 10
89.18332704145543
 20
175.3724726461288
 30
0.0
 10
89.18332704145543
 20
175.3724726461288
 30
0.0
 10
87.99384618303987
 20
177.3271719073684
 30
0.0
 10
87.99384618303987
 20
177.3271719073684
 30
0.0
 10
87.68011108893702
 20
177.8427394781533
 30
0.0
 10
87.12025881481309
 20
178.1574183874668
 30
0.0
 10
86.51673613146426
 20
178.1574183874668
 30
0.0
 10
86.51673613146426
 20
178.1574183874668
 30
0.0
 10
78.9760934319306
 20
178.1574183874668
 30
0.0
 10
78.9760934319306
 20
178.1574183874668
 30
0.0
 10
78.02109393595387
 20
178.1574183874668
 30
0.0
 10
77.24691388049658
 20
177.3832383320089
 30
0.0
 10
77.24691388049658
 20
176.4282388360328
 30
0.0
 10
77.24691388049658
 20
176.4282388360328
 30
0.0
 10
77.24691388049658
 20
175.2413819095174
 30
0.0
 10
77.24691388049658
 20
175.2413819095174
 30
0.0
 10
77.24691388049658
 20
174.2863824135413
 30
0.0
 10
78.02109393595387
 20
173.5122023580834
 30
0.0
 10
78.9760934319306
 20
173.5122023580834
 30
0.0
 10
78.9760934319306
 20
173.5122023580834
 30
0.0
 10
83.85859302122023
 20
173.5122023580834
 30
0.0
 10
83.85859302122023
 20
173.5122023580834
 30
0.0
 10
84.46211970130107
 20
173.5122023580834
 30
0.0
 10
85.02197649380311
 20
173.1975241244739
 30
0.0
 10
85.33571816585503
 20
172.681955877985
 30
0.0
 10
85.33571816585503
 20
172.681955877985
 30
0.0
 10
86.23312736911085
 20
171.2072531829942
 30
0.0
 10
86.23312736911085
 20
171.2072531829942
 30
0.0
 10
86.54688227600138
 20
170.6916631878413
 30
0.0
 10
87.10676268543059
 20
170.376971679885
 30
0.0
 10
87.71031482460383
 20
170.376971679885
 30
0.0
 10
87.71031482460383
 20
170.376971679885
 30
0.0
 10
97.7570314697701
 20
170.376971679885
 30
0.0
 10
97.7570314697701
 20
170.376971679885
 30
0.0
 10
97.7570314697701
 20
170.376971679885
 30
0.0
 10
98.62799467213482
 20
170.376971679885
 30
0.0
 10
98.62799467213482
 20
170.376971679885
 30
0.0
 10
99.23157123009593
 20
170.376971679885
 30
0.0
 10
99.79147665854931
 20
170.6916678633882
 30
0.0
 10
100.1052573974428
 20
171.2072707233678
 30
0.0
 10
100.1052573974428
 20
171.2072707233678
 30
0.0
 10
101.0027205219643
 20
172.6819774098317
 30
0.0
 10
101.0027205219643
 20
172.6819774098317
 30
0.0
 10
101.3164732593134
 20
173.1975342578206
 30
0.0
 10
101.8763287222458
 20
173.5122023580885
 30
0.0
 10
102.4798514175126
 20
173.5122023580962
 30
0.0
 10
102.4798514175126
 20
173.5122023580962
 30
0.0
 10
126.1777479195915
 20
173.512202358412
 30
0.0
 10
126.1777479195915
 20
173.512202358412
 30
0.0
 10
127.1430238130589
 20
173.5122023584248
 30
0.0
 10
127.8645512548638
 20
172.7128378117689
 30
0.0
 10
127.8838316451092
 20
171.7477544904638
 30
0.0
 10
127.9025854363909
 20
170.8090301728248
 30
0.0
 10
128.6694208057405
 20
170.0538432552154
 30
0.0
 10
129.6126451703022
 20
170.0538432552154
 30
0.0
 10
129.6126451703022
 20
170.0538432552154
 30
0.0
 10
132.2692874900591
 20
170.0538432552154
 30
0.0
 10
132.2692874900591
 20
170.0538432552154
 30
0.0
 10
133.2242869860352
 20
170.0538432552154
 30
0.0
 10
133.9984670414931
 20
170.8280233106733
 30
0.0
 10
133.9984670414931
 20
171.7830228066494
 30
0.0
 10
133.9984670414931
 20
171.7830228066494
 30
0.0
 10
133.9984670414931
 20
171.7830658703429
 30
0.0
 10
133.9984670414931
 20
171.7830658703429
 30
0.0
 10
133.9984670414931
 20
172.7380415829056
 30
0.0
 10
134.7726278166677
 20
173.5122023581065
 30
0.0
 10
135.727603529231
 20
173.5122023581386
 30
0.0
 10
135.727603529231
 20
173.5122023581386
 30
0.0
 10
142.2927418798784
 20
173.5122023583593
 30
0.0
 10
142.2927418798784
 20
173.5122023583593
 30
0.0
 10
143.2580177733307
 20
173.5122023583914
 30
0.0
 10
143.9795452151356
 20
172.7128378117535
 30
0.0
 10
143.998825605381
 20
171.7477544904638
 30
0.0
 10
144.0175793966633
 20
170.8090301728248
 30
0.0
 10
144.7844147660136
 20
170.0538432552154
 30
0.0
 10
145.7276391305747
 20
170.0538432552154
 30
0.0
 10
145.7276391305747
 20
170.0538432552154
 30
0.0
 10
148.39573639282
 20
170.0538432552154
 30
0.0
 10
148.39573639282
 20
170.0538432552154
 30
0.0
 10
149.350712105375
 20
170.0538432552154
 30
0.0
 10
150.1248728805605
 20
170.8280040304009
 30
0.0
 10
150.1248728805605
 20
171.7829797429558
 30
0.0
 10
150.1248728805605
 20
171.7829797429558
 30
0.0
 10
150.1248728805605
 20
171.7830658703429
 30
0.0
 10
150.1248728805605
 20
171.7830658703429
 30
0.0
 10
150.1248728805605
 20
172.7380415829005
 30
0.0
 10
150.8990336557409
 20
173.5122023580911
 30
0.0
 10
151.8540093682984
 20
173.5122023581052
 30
0.0
 10
151.8540093682984
 20
173.5122023581052
 30
0.0
 10
172.4191760289643
 20
173.5122023584081
 30
0.0
 10
172.4191760289643
 20
173.5122023584081
 30
0.0
 10
173.3844519224302
 20
173.5122023584222
 30
0.0
 10
174.105979364235
 20
172.7128378117677
 30
0.0
 10
174.1252597544811
 20
171.7477544904638
 30
0.0
 10
174.1440135457621
 20
170.8090301728248
 30
0.0
 10
174.910848915113
 20
170.0538432552154
 30
0.0
 10
175.8540732796742
 20
170.0538432552154
 30
0.0
 10
175.8540732796742
 20
170.0538432552154
 30
0.0
 10
178.5221274782259
 20
170.0538432552154
 30
0.0
 10
178.5221274782259
 20
170.0538432552154
 30
0.0
 10
179.477126974202
 20
170.0538432552154
 30
0.0
 10
180.2513070296599
 20
170.8280233106733
 30
0.0
 10
180.2513070296599
 20
171.7830228066494
 30
0.0
 10
180.2513070296599
 20
171.7830228066494
 30
0.0
 10
180.2513070296599
 20
171.7830658703429
 30
0.0
 10
180.2513070296599
 20
171.7830658703429
 30
0.0
 10
180.2513070296599
 20
172.7380415828966
 30
0.0
 10
181.0254678048441
 20
173.5122023580808
 30
0.0
 10
181.9804435173978
 20
173.5122023580808
 30
0.0
 10
181.9804435173978
 20
173.5122023580808
 30
0.0
 10
188.522163079567
 20
173.5122023580834
 30
0.0
 10
188.522163079567
 20
173.5122023580834
 30
0.0
 10
189.477150683832
 20
173.5122023580834
 30
0.0
 10
190.2513210991543
 20
172.7380319427617
 30
0.0
 10
190.2513210991543
 20
171.7830443384962
 30
0.0
 10
190.2513210991543
 20
171.7830443384962
 30
0.0
 10
190.2513210991543
 20
171.7830228066494
 30
0.0
 10
190.2513210991543
 20
171.7830228066494
 30
0.0
 10
190.2513210991543
 20
170.8280233106733
 30
0.0
 10
191.0255011546122
 20
170.0538432552154
 30
0.0
 10
191.9805006505883
 20
170.0538432552154
 30
0.0
 10
191.9805006505883
 20
170.0538432552154
 30
0.0
 10
194.6485979128336
 20
170.0538432552154
 30
0.0
 10
194.6485979128336
 20
170.0538432552154
 30
0.0
 10
195.6035736253886
 20
170.0538432552154
 30
0.0
 10
196.3777344005741
 20
170.8280040304009
 30
0.0
 10
196.3777344005741
 20
171.7829797429558
 30
0.0
 10
196.3777344005741
 20
171.7829797429558
 30
0.0
 10
196.3777344005741
 20
171.7830658703429
 30
0.0
 10
196.3777344005741
 20
171.7830658703429
 30
0.0
 10
196.3777344005741
 20
172.7380415829005
 30
0.0
 10
197.1518951757532
 20
173.5122023580911
 30
0.0
 10
198.1068708883107
 20
173.5122023581052
 30
0.0
 10
198.1068708883107
 20
173.5122023581052
 30
0.0
 10
218.6720375489767
 20
173.5122023584081
 30
0.0
 10
218.6720375489767
 20
173.5122023584081
 30
0.0
 10
219.6373134424426
 20
173.5122023584222
 30
0.0
 10
220.3588408842473
 20
172.7128378117677
 30
0.0
 10
220.3781212744934
 20
171.7477544904638
 30
0.0
 10
220.3968750657745
 20
170.8090301728248
 30
0.0
 10
221.1637104351253
 20
170.0538432552154
 30
0.0
 10
222.1069347996865
 20
170.0538432552154
 30
0.0
 10
222.1069347996865
 20
170.0538432552154
 30
0.0
 10
224.7750320619318
 20
170.0538432552154
 30
0.0
 10
224.7750320619318
 20
170.0538432552154
 30
0.0
 10
225.7300077744868
 20
170.0538432552154
 30
0.0
 10
226.5041685496723
 20
170.8280040304009
 30
0.0
 10
226.5041685496723
 20
171.7829797429558
 30
0.0
 10
226.5041685496723
 20
171.7829797429558
 30
0.0
 10
226.5041685496723
 20
171.7830658703429
 30
0.0
 10
226.5041685496723
 20
171.7830658703429
 30
0.0
 10
226.5041685496723
 20
172.7380415829056
 30
0.0
 10
227.2783293248462
 20
173.5122023581059
 30
0.0
 10
228.2333050374089
 20
173.512202358138
 30
0.0
 10
228.2333050374089
 20
173.512202358138
 30
0.0
 10
234.7984433880594
 20
173.5122023583587
 30
0.0
 10
234.7984433880594
 20
173.5122023583587
 30
0.0
 10
235.7637192815112
 20
173.5122023583914
 30
0.0
 10
236.4852467233147
 20
172.7128378117535
 30
0.0
 10
236.5045271135608
 20
171.7477544904638
 30
0.0
 10
236.5232809048418
 20
170.8090301728248
 30
0.0
 10
237.2901162741927
 20
170.0538432552154
 30
0.0
 10
238.2333406387539
 20
170.0538432552154
 30
0.0
 10
238.2333406387539
 20
170.0538432552154
 30
0.0
 10
240.9269100757432
 20
170.0538432552154
 30
0.0
 10
240.9269100757432
 20
170.0538432552154
 30
0.0
 10
241.8818976800082
 20
170.0538432552154
 30
0.0
 10
242.6560680953305
 20
170.8280136705371
 30
0.0
 10
242.6560680953305
 20
171.7830012748026
 30
0.0
 10
242.6560680953305
 20
171.7830012748026
 30
0.0
 10
242.6560680953305
 20
171.7830658703442
 30
0.0
 10
242.6560680953305
 20
171.7830658703442
 30
0.0
 10
242.6560680953305
 20
172.7380415829069
 30
0.0
 10
243.4302288705083
 20
173.5122023581052
 30
0.0
 10
244.3852045830709
 20
173.5122023581296
 30
0.0
 10
244.3852045830709
 20
173.5122023581296
 30
0.0
 10
253.9927282885821
 20
173.5122023583786
 30
0.0
 10
253.9927282885821
 20
173.5122023583786
 30
0.0
 10
254.9580041820403
 20
173.5122023584043
 30
0.0
 10
255.6795316238451
 20
172.7128378117593
 30
0.0
 10
255.6988120140899
 20
171.7477544904638
 30
0.0
 10
255.717565805371
 20
170.8090301728248
 30
0.0
 10
256.4844011747218
 20
170.0538432552154
 30
0.0
 10
257.427625539283
 20
170.0538432552154
 30
0.0
 10
257.427625539283
 20
170.0538432552154
 30
0.0
 10
260.0843109227334
 20
170.0538432552154
 30
0.0
 10
260.0843109227334
 20
170.0538432552154
 30
0.0
 10
261.0392985269983
 20
170.0538432552154
 30
0.0
 10
261.8134689423206
 20
170.8280136705371
 30
0.0
 10
261.8134689423206
 20
171.7830012748026
 30
0.0
 10
261.8134689423206
 20
171.7830012748026
 30
0.0
 10
261.8134689423206
 20
173.5122023580834
 30
0.0
 10
261.8134689423206
 20
173.5122023580834
 30
0.0
 10
261.8134689423206
 20
173.5122023580834
 30
0.0
 10
261.8134689423206
 20
176.4282388360328
 30
0.0
 10
261.8134689423206
 20
176.4282388360328
 30
0.0
 10
261.8134689423206
 20
178.098313468048
 30
0.0
 10
261.8134689423206
 20
178.1574183874668
 30
0.0
 10
263.5426484937546
 20
178.1574183874668
 30
0.0
 10
263.5426484937546
 20
178.1574183874668
 30
0.0
 10
282.7570226073321
 20
178.1574183874668
 30
0.0
 10
282.7570226073321
 20
178.1574183874668
 30
0.0
 10
282.7570226073321
 20
178.1574183874668
 30
0.0
 10
290.5177461432609
 20
178.1574183874668
 30
0.0
 10
290.5177461432609
 20
178.1574183874668
 30
0.0
 10
291.4727218558159
 20
178.1574183874668
 30
0.0
 10
292.2468826310014
 20
178.9315791626523
 30
0.0
 10
292.2468826310014
 20
179.8865548752073
 30
0.0
 10
292.2468826310014
 20
179.8865548752073
 30
0.0
 10
292.2468826310014
 20
182.3709854843952
 30
0.0
 10
292.2468826310014
 20
182.3709854843952
 30
0.0
 10
292.2468826310014
 20
183.3259730886607
 30
0.0
 10
291.472712215679
 20
184.1001435039824
 30
0.0
 10
290.5177246114141
 20
184.1001435039824
 30
0.0
  0
HATCH
  5
93
330
8A
100
AcDbEntity
  8
Calque 4
 62
   253
420
 11776947
440
 33554687
100
AcDbHatch
 10
0.0
 20
0.0
 30
0.0
210
0.0
220
0.0
230
1.0
  2
SOLID
 70
     1
 71
     1
 91
        5
 92
        1
 93
        1
 72
     4
 94
        3
 73
     0
 74
     0
 95
      104
 96
      100
 40
0.0
 40
0.0
 40
0.0
 40
0.0
 40
1.0
 40
1.0
 40
1.0
 40
2.0
 40
2.0
 40
2.0
 40
3.0
 40
3.0
 40
3.0
 40
4.0
 40
4.0
 40
4.0
 40
5.0
 40
5.0
 40
5.0
 40
6.0
 40
6.0
 40
6.0
 40
7.0
 40
7.0
 40
7.0
 40
8.0
 40
8.0
 40
8.0
 40
9.0
 40
9.0
 40
9.0
 40
10.0
 40
10.0
 40
10.0
 40
11.0
 40
11.0
 40
11.0
 40
12.0
 40
12.0
 40
12.0
 40
13.0
 40
13.0
 40
13.0
 40
14.0
 40
14.0
 40
14.0
 40
15.0
 40
15.0
 40
15.0
 40
16.0
 40
16.0
 40
16.0
 40
17.0
 40
17.0
 40
17.0
 40
18.0
 40
18.0
 40
18.0
 40
19.0
 40
19.0
 40
19.0
 40
20.0
 40
20.0
 40
20.0
 40
21.0
 40
21.0
 40
21.0
 40
22.0
 40
22.0
 40
22.0
 40
23.0
 40
23.0
 40
23.0
 40
24.0
 40
24.0
 40
24.0
 40
25.0
 40
25.0
 40
25.0
 40
26.0
 40
26.0
 40
26.0
 40
27.0
 40
27.0
 40
27.0
 40
28.0
 40
28.0
 40
28.0
 40
29.0
 40
29.0
 40
29.0
 40
30.0
 40
30.0
 40
30.0
 40
31.0
 40
31.0
 40
31.0
 40
32.0
 40
32.0
 40
32.0
 40
33.0
 40
33.0
 40
33.0
 40
33.0
 10
257.433073096519
 20
181.8285051887298
 10
257.433073096519
 20
181.8285051887298
 10
257.433073096519
 20
180.0099299564367
 10
257.433073096519
 20
180.0099299564367
 10
257.433073096519
 20
178.9541733222586
 10
256.5772132423084
 20
178.0983134677259
 10
255.5214566081303
 20
178.098313467328
 10
255.5214566081303
 20
178.098313467328
 10
237.3462071130278
 20
178.0983134604811
 10
237.3462071130278
 20
178.0983134604811
 10
236.8788747259875
 20
178.0983134603052
 10
236.5000269727375
 20
178.4771612134127
 10
236.5000269727375
 20
178.9444936004531
 10
236.5000269727375
 20
178.9444936004531
 10
236.5000269727375
 20
178.9444951089104
 10
236.5000269727375
 20
178.9444951089104
 10
236.5000269727375
 20
179.3414502979661
 10
236.7360031019791
 20
179.7004153676758
 10
237.1004209884294
 20
179.8578098598061
 10
237.1004209884294
 20
179.8578098598061
 10
237.1059546730526
 20
179.8601998947451
 10
237.1059546730526
 20
179.8601998947451
 10
237.7639679107354
 20
180.088329811409
 10
238.374008193786
 20
180.4256046594149
 10
238.9146298028088
 20
180.8495882544153
 10
238.9425350762393
 20
180.8714861425934
 10
238.9701819675085
 20
180.8936208810862
 10
238.9976996676969
 20
180.9159709380467
 10
239.0871860229263
 20
180.9886409209387
 10
239.1752082125744
 20
181.0630334515733
 10
239.2605389213747
 20
181.1404835044511
 10
239.2796592175194
 20
181.1578812513946
 10
239.298198152818
 20
181.1759249548364
 10
239.3167802347689
 20
181.1939039490987
 10
239.4453033071315
 20
181.3182557621314
 10
239.6492338585609
 20
181.5276557739717
 10
239.7679911200236
 20
181.6613654085683
 10
239.8029343624219
 20
181.7007082505564
 10
239.838756938627
 20
181.7392379578346
 10
239.8723448158615
 20
181.7798070991263
 10
239.9271003022302
 20
181.8458022095156
 10
239.9784322249604
 20
181.9146610555271
 10
240.0304962304812
 20
181.9829170098286
 10
240.0799118188478
 20
182.0477494004916
 10
240.1285737925769
 20
182.1130339599371
 10
240.1754916867167
 20
182.1798472805042
 10
240.2206870331138
 20
182.2442490342316
 10
240.2647627234782
 20
182.3094689981367
 10
240.3075680348825
 20
182.375657895147
 10
240.3606655690488
 20
182.4577803587767
 10
240.410813240206
 20
182.5417976249232
 10
240.4600996374919
 20
182.6265469738604
 10
240.4926557898275
 20
182.6825513073425
 10
240.526611512204
 20
182.7376297714129
 10
240.557445116797
 20
182.7947537609277
 10
240.633086494545
 20
182.9348399560967
 10
240.7037109519926
 20
183.0780267372024
 10
240.7686294700428
 20
183.224486359019
 10
240.7873191130503
 20
183.2666672468666
 10
240.8030373612017
 20
183.3104630232228
 10
240.8208226666443
 20
183.3531606753931
 10
240.8684941754215
 20
183.4676455047373
 10
240.9134742033508
 20
183.5834222448885
 10
240.9543847122381
 20
183.7013737015648
 10
240.9735695877216
 20
183.7567320796434
 10
240.9912257020835
 20
183.812779476819
 10
241.0088818164454
 20
183.8688699376883
 10
241.0448184687259
 20
183.9830102574839
 10
241.0771593025937
 20
184.0986362747076
 10
241.1065502734522
 20
184.2156187982786
 10
241.1195770407558
 20
184.2674890171784
 10
241.1335081456243
 20
184.3189501309893
 10
241.1452214702741
 20
184.3713586460587
 10
241.1828160747569
 20
184.5395008375857
 10
241.2156736729475
 20
184.709494767936
 10
241.2392941088683
 20
184.8828046026908
 10
241.2392941088683
 20
184.8828046026908
 10
243.1706353428399
 20
198.4115811216709
 10
243.1706353428399
 20
198.4115811216709
 10
243.2571478480509
 20
199.0175891789244
 10
243.7761315490211
 20
199.4677455305767
 10
244.3882836371609
 20
199.4677455305767
 10
244.3882836371609
 20
199.4677455305767
 10
264.9607359228706
 20
199.4677455305767
 10
264.9607359228706
 20
199.4677455305767
 10
265.5758607197632
 20
199.4677455305767
 10
266.0964058075667
 20
199.0133216726093
 10
266.1794578772613
 20
198.4038293679233
 10
266.1794578772613
 20
198.4038293679233
 10
267.8467605194041
 20
185.6233307597831
 10
267.8467605194041
 20
185.6233307597831
 10
267.9825031043642
 20
184.6271554660552
 10
267.2081426084728
 20
183.7401216778385
 10
266.2027614542796
 20
183.7401216778385
 10
266.2027614542796
 20
183.7401216778385
 10
259.3446895856277
 20
183.7401216778385
 10
259.3446895856277
 20
183.7401216778385
 10
258.2889329511672
 20
183.7401216778385
 10
257.433073096519
 20
182.8842618231896
 10
257.433073096519
 20
181.8285051887298
 97
        0
 97
        1
330
8E
 92
        1
 93
        1
 72
     4
 94
        3
 73
     0
 74
     0
 95
      161
 96
      157
 40
0.0
 40
0.0
 40
0.0
 40
0.0
 40
1.0
 40
1.0
 40
1.0
 40
2.0
 40
2.0
 40
2.0
 40
3.0
 40
3.0
 40
3.0
 40
4.0
 40
4.0
 40
4.0
 40
5.0
 40
5.0
 40
5.0
 40
6.0
 40
6.0
 40
6.0
 40
7.0
 40
7.0
 40
7.0
 40
8.0
 40
8.0
 40
8.0
 40
9.0
 40
9.0
 40
9.0
 40
10.0
 40
10.0
 40
10.0
 40
11.0
 40
11.0
 40
11.0
 40
12.0
 40
12.0
 40
12.0
 40
13.0
 40
13.0
 40
13.0
 40
14.0
 40
14.0
 40
14.0
 40
15.0
 40
15.0
 40
15.0
 40
16.0
 40
16.0
 40
16.0
 40
17.0
 40
17.0
 40
17.0
 40
18.0
 40
18.0
 40
18.0
 40
19.0
 40
19.0
 40
19.0
 40
20.0
 40
20.0
 40
20.0
 40
21.0
 40
21.0
 40
21.0
 40
22.0
 40
22.0
 40
22.0
 40
23.0
 40
23.0
 40
23.0
 40
24.0
 40
24.0
 40
24.0
 40
25.0
 40
25.0
 40
25.0
 40
26.0
 40
26.0
 40
26.0
 40
27.0
 40
27.0
 40
27.0
 40
28.0
 40
28.0
 40
28.0
 40
29.0
 40
29.0
 40
29.0
 40
30.0
 40
30.0
 40
30.0
 40
31.0
 40
31.0
 40
31.0
 40
32.0
 40
32.0
 40
32.0
 40
33.0
 40
33.0
 40
33.0
 40
34.0
 40
34.0
 40
34.0
 40
35.0
 40
35.0
 40
35.0
 40
36.0
 40
36.0
 40
36.0
 40
37.0
 40
37.0
 40
37.0
 40
38.0
 40
38.0
 40
38.0
 40
39.0
 40
39.0
 40
39.0
 40
40.0
 40
40.0
 40
40.0
 40
41.0
 40
41.0
 40
41.0
 40
42.0
 40
42.0
 40
42.0
 40
43.0
 40
43.0
 40
43.0
 40
44.0
 40
44.0
 40
44.0
 40
45.0
 40
45.0
 40
45.0
 40
46.0
 40
46.0
 40
46.0
 40
47.0
 40
47.0
 40
47.0
 40
48.0
 40
48.0
 40
48.0
 40
49.0
 40
49.0
 40
49.0
 40
50.0
 40
50.0
 40
50.0
 40
51.0
 40
51.0
 40
51.0
 40
52.0
 40
52.0
 40
52.0
 40
52.0
 10
191.1980118066542
 20
178.098313468048
 10
190.7086800163379
 20
178.098313468048
 10
190.3119984238756
 20
178.4949956409925
 10
190.3119991399373
 20
178.9843274313075
 10
190.3119991399373
 20
178.9843274313075
 10
190.3119992826948
 20
179.0818831247656
 10
190.3119992826948
 20
179.0818831247656
 10
190.3119998178448
 20
179.4475866399959
 10
190.5696022605512
 20
179.7224466342891
 10
190.9014982922052
 20
179.8760177423232
 10
190.9041852837279
 20
179.8772610360839
 10
190.9067675229415
 20
179.8786760901192
 10
190.9095927189984
 20
179.8796862160835
 10
191.0382455035257
 20
179.9256997726584
 10
191.1648527626086
 20
179.9762780807512
 10
191.2896513465618
 20
180.0304091435632
 10
191.2982856171217
 20
180.0341556849034
 10
191.3069198876817
 20
180.0379022262437
 10
191.3155326263948
 20
180.0416702994306
 10
191.8057051184055
 20
180.2569241717184
 10
192.263472181008
 20
180.5348787818377
 10
192.6800272888683
 20
180.8641437828405
 10
192.7108824253081
 20
180.8885178333986
 10
192.7417590935946
 20
180.9128057565697
 10
192.7721405294052
 20
180.9377611669909
 10
192.8564161777131
 20
181.0069645225509
 10
192.9389692782784
 20
181.0782134035552
 10
193.0195199170929
 20
181.1517231284717
 10
193.0429545857966
 20
181.1731605242756
 10
193.0659089376614
 20
181.1951468536118
 10
193.0887600680082
 20
181.2171870593834
 10
193.2250765891615
 20
181.3486660772966
 10
193.3603029894263
 20
181.481616911958
 10
193.4836419853353
 20
181.6253403205552
 10
193.5319793912402
 20
181.6816665188378
 10
193.5834396810646
 20
181.7350432362404
 10
193.6305937287891
 20
181.7923386339539
 10
193.6821625018339
 20
181.8548671170112
 10
193.7300923927724
 20
181.9204746541584
 10
193.7792495989776
 20
181.9850271308133
 10
193.8309906267967
 20
182.0529816392599
 10
193.8821502947527
 20
182.1212375935614
 10
193.9311352461835
 20
182.1913452866862
 10
193.9747372359187
 20
182.2537661105096
 10
194.016853528226
 20
182.3172635266721
 10
194.0582162058957
 20
182.3813638345445
 10
194.1113352719089
 20
182.463701616642
 10
194.1618059207678
 20
182.5477834783289
 10
194.2110707862069
 20
182.6327696775806
 10
194.2435623430021
 20
182.6888170747563
 10
194.277087428443
 20
182.7441323891413
 10
194.3078564374956
 20
182.8012779105029
 10
194.3833470923162
 20
182.9415148285993
 10
194.4543160593123
 20
183.084507823084
 10
194.519083854435
 20
183.2311181678282
 10
194.53484516628
 20
183.2667749061005
 10
194.5478288698901
 20
183.3039388736476
 10
194.5629442263316
 20
183.3399831851621
 10
194.6133502796502
 20
183.4602600812909
 10
194.6605265559513
 20
183.5821518659283
 10
194.7034395265895
 20
183.7062614307845
 10
194.7219784466694
 20
183.7599187929672
 10
194.7389024782408
 20
183.8143513016342
 10
194.7560202964331
 20
183.8686761510672
 10
194.7922583945685
 20
183.9837854039681
 10
194.8249222061381
 20
184.1003157587567
 10
194.8545069636177
 20
184.2183318109733
 10
194.8673830079938
 20
184.2696852655503
 10
194.8810557307009
 20
184.3207157424255
 10
194.89263986427
 20
184.3725859613254
 10
194.9301052776721
 20
184.5403405796102
 10
194.9629413440159
 20
184.7099254048717
 10
194.9864971843963
 20
184.8828046026908
 10
194.9864971843963
 20
184.8828046026908
 10
196.8288911862143
 20
198.4038139173445
 10
196.8288911862143
 20
198.4038139173445
 10
196.9119427163902
 20
199.013314660401
 10
197.4324944071023
 20
199.4677455305767
 10
198.0476274922554
 20
199.4677455305767
 10
198.0476274922554
 20
199.4677455305767
 10
218.7078588345787
 20
199.4677455305767
 10
218.7078588345787
 20
199.4677455305767
 10
219.3229925597059
 20
199.4677455305767
 10
219.8435451998862
 20
199.0133150702057
 10
219.9265984626122
 20
198.4038139173445
 10
219.9265984626122
 20
198.4038139173445
 10
221.7690355281238
 20
184.8827615389973
 10
221.7690355281238
 20
184.8827615389973
 10
221.7926344321978
 20
184.7095808953231
 10
221.8254920303884
 20
184.5396946242067
 10
221.8630435711776
 20
184.3716600919137
 10
221.8747568958275
 20
184.3192300449975
 10
221.8886664688492
 20
184.2677258674931
 10
221.9017147679995
 20
184.2158341167465
 10
221.9311272707049
 20
184.0987224020947
 10
221.9635111682662
 20
183.9829887256371
 10
221.9994693523935
 20
183.8687407466076
 10
222.017060871215
 20
183.8129086678997
 10
222.034609326343
 20
183.7570765891919
 10
222.0537080744394
 20
183.7019765932747
 10
222.094790838101
 20
183.5834437767353
 10
222.1399861844981
 20
183.467085676721
 10
222.1879160754367
 20
183.352084083054
 10
222.2054645305647
 20
183.3099893225936
 10
222.2209028647079
 20
183.2667964379473
 10
222.239334125554
 20
183.2251969099629
 10
222.3042095799106
 20
183.0788018836866
 10
222.3748555692051
 20
182.9357442936615
 10
222.4504108195659
 20
182.7957226940329
 10
222.4813951470864
 20
182.7383403223567
 10
222.5154154650032
 20
182.6829819442781
 10
222.5481223402663
 20
182.6267192286346
 10
222.5971934190843
 20
182.5422928573992
 10
222.6471688354672
 20
182.4585985689544
 10
222.7000510511659
 20
182.3767990830266
 10
222.7428348307233
 20
182.3106101860162
 10
222.7868459255474
 20
182.2453256265707
 10
222.8320197400977
 20
182.1809238728433
 10
222.8789591660842
 20
182.1140244248891
 10
222.9277072672005
 20
182.0486968017501
 10
222.9771659192606
 20
181.9837998155467
 10
223.0290361381604
 20
181.915759179713
 10
223.080131210576
 20
181.847051056629
 10
223.1346713784769
 20
181.7812927965544
 10
223.172219747521
 20
181.7358744952199
 10
223.2126298776973
 20
181.6931684600326
 10
223.2513917034854
 20
181.6488348100463
 10
223.3893087040664
 20
181.4910929104662
 10
223.5375505012912
 20
181.3428307269833
 10
223.6881341305466
 20
181.1971318027163
 10
223.7073015599658
 20
181.1785861356932
 10
223.7264283627886
 20
181.1600211676548
 10
223.7461542952619
 20
181.1420553292662
 10
223.8310328352798
 20
181.0649713177838
 10
223.9184736650648
 20
180.9908371693105
 10
224.0074432559714
 20
180.9185116959671
 10
224.035047083547
 20
180.8960755116194
 10
224.06280163405
 20
180.8738761775863
 10
224.0908145667144
 20
180.851892162021
 10
224.630165796777
 20
180.4283822676499
 10
225.2387203823996
 20
180.0911935470311
 10
225.8951617952672
 20
179.8626975889719
 10
225.8951617952672
 20
179.8626975889719
 10
225.9726874442435
 20
179.8290248323458
 10
225.9726874442435
 20
179.8290248323458
 10
226.2928727775112
 20
179.6899544350677
 10
226.5000129032432
 20
179.3741490895564
 10
226.5000129032432
 20
179.025065685427
 10
226.5000129032432
 20
179.025065685427
 10
226.5000129032432
 20
178.9843274313139
 10
226.5000129032432
 20
178.9843274313139
 10
226.5000129032432
 20
178.4949954312647
 10
226.1033309400265
 20
178.098313468048
 10
225.6139989399773
 20
178.098313468048
 10
225.6139989399773
 20
178.098313468048
 10
191.1980118066542
 20
178.098313468048
 10
191.1980118066542
 20
178.098313468048
 97
        0
 97
        1
330
8F
 92
        1
 93
        1
 72
     4
 94
        3
 73
     0
 74
     0
 95
      173
 96
      169
 40
0.0
 40
0.0
 40
0.0
 40
0.0
 40
1.0
 40
1.0
 40
1.0
 40
2.0
 40
2.0
 40
2.0
 40
3.0
 40
3.0
 40
3.0
 40
4.0
 40
4.0
 40
4.0
 40
5.0
 40
5.0
 40
5.0
 40
6.0
 40
6.0
 40
6.0
 40
7.0
 40
7.0
 40
7.0
 40
8.0
 40
8.0
 40
8.0
 40
9.0
 40
9.0
 40
9.0
 40
10.0
 40
10.0
 40
10.0
 40
11.0
 40
11.0
 40
11.0
 40
12.0
 40
12.0
 40
12.0
 40
13.0
 40
13.0
 40
13.0
 40
14.0
 40
14.0
 40
14.0
 40
15.0
 40
15.0
 40
15.0
 40
16.0
 40
16.0
 40
16.0
 40
17.0
 40
17.0
 40
17.0
 40
18.0
 40
18.0
 40
18.0
 40
19.0
 40
19.0
 40
19.0
 40
20.0
 40
20.0
 40
20.0
 40
21.0
 40
21.0
 40
21.0
 40
22.0
 40
22.0
 40
22.0
 40
23.0
 40
23.0
 40
23.0
 40
24.0
 40
24.0
 40
24.0
 40
25.0
 40
25.0
 40
25.0
 40
26.0
 40
26.0
 40
26.0
 40
27.0
 40
27.0
 40
27.0
 40
28.0
 40
28.0
 40
28.0
 40
29.0
 40
29.0
 40
29.0
 40
30.0
 40
30.0
 40
30.0
 40
31.0
 40
31.0
 40
31.0
 40
32.0
 40
32.0
 40
32.0
 40
33.0
 40
33.0
 40
33.0
 40
34.0
 40
34.0
 40
34.0
 40
35.0
 40
35.0
 40
35.0
 40
36.0
 40
36.0
 40
36.0
 40
37.0
 40
37.0
 40
37.0
 40
38.0
 40
38.0
 40
38.0
 40
39.0
 40
39.0
 40
39.0
 40
40.0
 40
40.0
 40
40.0
 40
41.0
 40
41.0
 40
41.0
 40
42.0
 40
42.0
 40
42.0
 40
43.0
 40
43.0
 40
43.0
 40
44.0
 40
44.0
 40
44.0
 40
45.0
 40
45.0
 40
45.0
 40
46.0
 40
46.0
 40
46.0
 40
47.0
 40
47.0
 40
47.0
 40
48.0
 40
48.0
 40
48.0
 40
49.0
 40
49.0
 40
49.0
 40
50.0
 40
50.0
 40
50.0
 40
51.0
 40
51.0
 40
51.0
 40
52.0
 40
52.0
 40
52.0
 40
53.0
 40
53.0
 40
53.0
 40
54.0
 40
54.0
 40
54.0
 40
55.0
 40
55.0
 40
55.0
 40
56.0
 40
56.0
 40
56.0
 40
56.0
 10
145.0100042091504
 20
178.0983134681558
 10
144.5206727150135
 20
178.0983134680961
 10
144.1239916460821
 20
178.4949959371745
 10
144.1239933733094
 20
178.9843274313081
 10
144.1239933733094
 20
178.9843274313081
 10
144.123993664171
 20
179.066729808944
 10
144.123993664171
 20
179.066729808944
 10
144.1239949644239
 20
179.4350975710634
 10
144.3550559532081
 20
179.7598221575002
 10
144.6987374155928
 20
179.8924036817948
 10
144.7037647881951
 20
179.8943430843983
 10
144.7082342512501
 20
179.89717529744
 10
144.7132953604833
 20
179.8990433463413
 10
144.8287921866263
 20
179.9416118074309
 10
144.942135828091
 20
179.988895742966
 10
145.0544674727569
 20
180.0380529491711
 10
145.0785400774601
 20
180.0485820222479
 10
145.1027849369375
 20
180.0586804583891
 10
145.1266852868665
 20
180.0695109773208
 10
145.2360024729828
 20
180.1190126930745
 10
145.3436832387436
 20
180.1716365266117
 10
145.4496845204554
 20
180.2271886913113
 10
145.4702689659798
 20
180.2379976783963
 10
145.490573497496
 20
180.2493018979573
 10
145.5109426245525
 20
180.2605199901312
 10
145.8363534249811
 20
180.4399448693723
 10
146.1478115886945
 20
180.6435284807038
 10
146.4394604533677
 20
180.873811582046
 10
146.4768828030762
 20
180.9033748076787
 10
146.5145420030994
 20
180.9326150556098
 10
146.5511461426301
 20
180.9631687461946
 10
146.6260339057408
 20
181.0255249744776
 10
146.699069930028
 20
181.0900128555921
 10
146.7709647664359
 20
181.1557495838201
 10
146.8198420586328
 20
181.2005788888219
 10
146.8675350992568
 20
181.2466139772436
 10
146.9149912895661
 20
181.2929505115202
 10
146.9798667439227
 20
181.3561680136745
 10
147.0450005804407
 20
181.4191486655142
 10
147.1071199584091
 20
181.4851437759035
 10
147.1872614921347
 20
181.5703237617763
 10
147.2638072074476
 20
181.6588196520537
 10
147.3391256074939
 20
181.7484351983638
 10
147.400577498212
 20
181.8215573500382
 10
147.4593594399291
 20
181.8968542182377
 10
147.5174738943959
 20
181.9727970418407
 10
147.575954390258
 20
182.0492350979196
 10
147.6337028033296
 20
182.1261253227811
 10
147.6886736081661
 20
182.2053194552482
 10
147.7290888845774
 20
182.263541568949
 10
147.7678031450929
 20
182.3229909979163
 10
147.8062374916002
 20
182.3826557453515
 10
147.861380551211
 20
182.4682233044664
 10
147.9139613210546
 20
182.5553842202432
 10
147.9649702660831
 20
182.6438155149802
 10
147.9959976572971
 20
182.6976451319372
 10
148.0278217268421
 20
182.7509795164182
 10
148.057277293241
 20
182.8058211301741
 10
148.1330478620697
 20
182.9468977902951
 10
148.2047273800097
 20
183.0904936764896
 10
148.2696458980599
 20
183.2379868269519
 10
148.2814238182501
 20
183.2647509125029
 10
148.2909408945281
 20
183.2926777177802
 10
148.302352773323
 20
183.3196355899523
 10
148.356677622756
 20
183.4480299923182
 10
148.4068037620664
 20
183.5785560475156
 10
148.4525589364799
 20
183.7113429466252
 10
148.4704088374628
 20
183.7631270381379
 10
148.4865361907031
 20
183.8157508716751
 10
148.5030511171856
 20
183.8681809185912
 10
148.5396337248696
 20
183.9844098275248
 10
148.5726635778344
 20
184.1020813701929
 10
148.6024851856286
 20
184.2212816739825
 10
148.6151459115369
 20
184.2719030457689
 10
148.628517188389
 20
184.3222445035471
 10
148.6399290671839
 20
184.3733611078095
 10
148.6773083531988
 20
184.5408788757798
 10
148.7101013558491
 20
184.710183787033
 10
148.7336141325359
 20
184.8828046026908
 10
148.7336141325359
 20
184.8828046026908
 10
150.5760286721461
 20
198.4038066222364
 10
150.5760286721461
 20
198.4038066222364
 10
150.6590817747323
 20
199.0133117817141
 10
151.1796375843667
 20
199.4677455305767
 10
151.7947752578014
 20
199.4677455305767
 10
151.7947752578014
 20
199.4677455305767
 10
172.455001160628
 20
199.4677455305767
 10
172.455001160628
 20
199.4677455305767
 10
173.0701341448213
 20
199.4677455305767
 10
173.5906856857468
 20
199.0133145957511
 10
173.6737369425999
 20
198.4038139173448
 10
173.6737369425999
 20
198.4038139173448
 10
175.5161309444179
 20
184.8827615389973
 10
175.5161309444179
 20
184.8827615389973
 10
175.5397944440323
 20
184.7091071946939
 10
175.5726951059164
 20
184.5387687547951
 10
175.6103973696331
 20
184.3702820537196
 10
175.6221752898233
 20
184.317593624642
 10
175.636278649466
 20
184.2658310649762
 10
175.6494130760036
 20
184.2136809320682
 10
175.6787825150153
 20
184.0968921951182
 10
175.7110156896492
 20
183.9814814963624
 10
175.7469092782361
 20
183.8675564950345
 10
175.7648022429127
 20
183.8107554832214
 10
175.7828674623634
 20
183.7540621306423
 10
175.8023322518551
 20
183.6980147334666
 10
175.8423384231775
 20
183.5828408850254
 10
175.8863064543081
 20
183.4697771575688
 10
175.9327937115122
 20
183.3578976816854
 10
175.9518493959149
 20
183.3120133161912
 10
175.9689672141073
 20
183.2651169538982
 10
175.9890994908492
 20
183.2198139482672
 10
176.0544701776818
 20
183.0726437755067
 10
176.1251807625165
 20
182.9285311249893
 10
176.2013819682809
 20
182.7878205062637
 10
176.2311389805348
 20
182.7328712332739
 10
176.2641903653464
 20
182.680118208656
 10
176.2955407342621
 20
182.6262024643119
 10
176.346312828976
 20
182.5388908256076
 10
176.3978600701741
 20
182.4522466741535
 10
176.4526586202363
 20
182.3677557073778
 10
176.4954423997938
 20
182.3018251925288
 10
176.5398410678599
 20
182.2371219929465
 10
176.5849933505635
 20
182.1729786213805
 10
176.6325141364132
 20
182.1054978135631
 10
176.6815206196908
 20
182.0393304483996
 10
176.7316036953077
 20
181.9738736341798
 10
176.7837753600624
 20
181.9057038072654
 10
176.835667110809
 20
181.8372540663429
 10
176.8905302564116
 20
181.7713666151874
 10
176.9328833990334
 20
181.7204868612397
 10
176.9777772995755
 20
181.6719971422848
 10
177.0217022670125
 20
181.6225169583779
 10
177.1561255864776
 20
181.4711050118011
 10
177.2967285459693
 20
181.3256143230897
 10
177.4449968429158
 20
181.1880473539943
 10
177.4669162629407
 20
181.1676997587845
 10
177.4877590906264
 20
181.1461679120018
 10
177.5099799565063
 20
181.1261217626469
 10
177.596064279944
 20
181.0484994549949
 10
177.6853137848587
 20
180.9744729657556
 10
177.7755752865723
 20
180.9017168554765
 10
177.8048370663501
 20
180.8781394832493
 10
177.8339050595069
 20
180.8544544517882
 10
177.8635974762204
 20
180.8313938438838
 10
177.9593711307103
 20
180.7569797814024
 10
178.0568458010961
 20
180.684654308059
 10
178.1568827612491
 20
180.6158385257411
 10
178.171459821521
 20
180.6058046851403
 10
178.1864029231883
 20
180.5963522044027
 10
178.2010661108474
 20
180.5864475548825
 10
178.661115549209
 20
180.2756784102662
 10
179.1631305569502
 20
180.0241649079962
 10
179.696022232978
 20
179.8441586688919
 10
179.696022232978
 20
179.8441586688919
 10
179.7246890711593
 20
179.8333534758127
 10
179.7246890711593
 20
179.8333534758127
 10
180.0780769430825
 20
179.7001534289969
 10
180.3120053057407
 20
179.3619865153992
 10
180.3120053057407
 20
178.9843289449805
 10
180.3120053057407
 20
178.9843289449805
 10
180.3120053057407
 20
178.9843274313139
 10
180.3120053057407
 20
178.9843274313139
 10
180.3120053057407
 20
178.4949954336775
 10
179.9153233445107
 20
178.0983134724
 10
179.4259913468743
 20
178.0983134723403
 10
179.4259913468743
 20
178.0983134723403
 10
145.0100042091504
 20
178.0983134681558
 10
145.0100042091504
 20
178.0983134681558
 97
        0
 97
        1
330
90
 92
        1
 93
        1
 72
     4
 94
        3
 73
     0
 74
     0
 95
      113
 96
      109
 40
0.0
 40
0.0
 40
0.0
 40
0.0
 40
1.0
 40
1.0
 40
1.0
 40
2.0
 40
2.0
 40
2.0
 40
3.0
 40
3.0
 40
3.0
 40
4.0
 40
4.0
 40
4.0
 40
5.0
 40
5.0
 40
5.0
 40
6.0
 40
6.0
 40
6.0
 40
7.0
 40
7.0
 40
7.0
 40
8.0
 40
8.0
 40
8.0
 40
9.0
 40
9.0
 40
9.0
 40
10.0
 40
10.0
 40
10.0
 40
11.0
 40
11.0
 40
11.0
 40
12.0
 40
12.0
 40
12.0
 40
13.0
 40
13.0
 40
13.0
 40
14.0
 40
14.0
 40
14.0
 40
15.0
 40
15.0
 40
15.0
 40
16.0
 40
16.0
 40
16.0
 40
17.0
 40
17.0
 40
17.0
 40
18.0
 40
18.0
 40
18.0
 40
19.0
 40
19.0
 40
19.0
 40
20.0
 40
20.0
 40
20.0
 40
21.0
 40
21.0
 40
21.0
 40
22.0
 40
22.0
 40
22.0
 40
23.0
 40
23.0
 40
23.0
 40
24.0
 40
24.0
 40
24.0
 40
25.0
 40
25.0
 40
25.0
 40
26.0
 40
26.0
 40
26.0
 40
27.0
 40
27.0
 40
27.0
 40
28.0
 40
28.0
 40
28.0
 40
29.0
 40
29.0
 40
29.0
 40
30.0
 40
30.0
 40
30.0
 40
31.0
 40
31.0
 40
31.0
 40
32.0
 40
32.0
 40
32.0
 40
33.0
 40
33.0
 40
33.0
 40
34.0
 40
34.0
 40
34.0
 40
35.0
 40
35.0
 40
35.0
 40
36.0
 40
36.0
 40
36.0
 40
36.0
 10
113.8161884426913
 20
178.0983133934903
 10
112.9109319570011
 20
178.0983134302108
 10
112.177076598281
 20
178.8321688186993
 10
112.177076598281
 20
179.7374253043895
 10
112.177076598281
 20
179.7374253043895
 10
112.177076598281
 20
182.479462928487
 10
112.177076598281
 20
182.479462928487
 10
112.177076598281
 20
182.479462928487
 10
112.177076598281
 20
186.564577589057
 10
112.177076598281
 20
186.564577589057
 10
112.177076598281
 20
187.7363474539702
 10
111.2271694383042
 20
188.686254613947
 10
110.055399573391
 20
188.686254613947
 10
110.055399573391
 20
188.686254613947
 10
105.970284912821
 20
188.686254613947
 10
105.970284912821
 20
188.686254613947
 10
105.970284912821
 20
188.686254613947
 10
104.4194370331537
 20
188.686254613947
 10
104.4194370331537
 20
188.686254613947
 10
103.6741198190588
 20
188.686254613947
 10
103.1000644516336
 20
189.3438372131957
 10
103.2006934858997
 20
190.0823299667752
 10
103.2006934858997
 20
190.0823299667752
 10
104.3346015568301
 20
198.4038139173445
 10
104.3346015568301
 20
198.4038139173445
 10
104.4176538117248
 20
199.0133148318209
 10
104.9382058995947
 20
199.4677455305767
 10
105.5533392524467
 20
199.4677455305767
 10
105.5533392524467
 20
199.4677455305767
 10
126.213547222402
 20
199.4677455305767
 10
126.213547222402
 20
199.4677455305767
 10
126.8286691888942
 20
199.4677455305767
 10
127.349212318471
 20
199.0133247090871
 10
127.4322657695344
 20
198.4038354491915
 10
127.4322657695344
 20
198.4038354491915
 10
129.2747458987396
 20
184.8827615389973
 10
129.2747458987396
 20
184.8827615389973
 10
129.2984524620475
 20
184.7088272806857
 10
129.3313961876252
 20
184.5381873949319
 10
129.3691630468822
 20
184.369442311695
 10
129.3810701581531
 20
184.3163232456818
 10
129.3953673044169
 20
184.2641946446207
 10
129.4086093901883
 20
184.2116138747771
 10
129.4379357655065
 20
184.0951911792224
 10
129.4700182172129
 20
183.9800388626279
 10
129.5058256784127
 20
183.8664583708485
 10
129.5239770252506
 20
183.8089037443981
 10
129.5424298179435
 20
183.7515644364155
 10
129.5621960532901
 20
183.6947634246024
 10
129.6015347373623
 20
183.5816996971459
 10
129.6447060901619
 20
183.4706384314401
 10
129.6902890098011
 20
183.3607614173075
 10
129.7103351591559
 20
183.3124439531268
 10
129.7285726333809
 20
183.2632006195346
 10
129.749781502462
 20
183.2155291107574
 10
129.8157766128513
 20
183.0672392819642
 10
129.8868101753878
 20
182.9218347206398
 10
129.9637865276364
 20
182.7800905732686
 10
129.9909166545827
 20
182.7301366887325
 10
130.0214057496271
 20
182.6823790525682
 10
130.0498493192272
 20
182.6332864419034
 10
130.1036574043375
 20
182.5403980548824
 10
130.1584559543998
 20
182.4482632824987
 10
130.2168503228747
 20
182.3585616088015
 10
130.2585144463995
 20
182.2945904920098
 10
130.3020733724411
 20
182.2320404771057
 10
130.3459552761845
 20
182.169748844363
 10
130.3957153740995
 20
182.0991459187622
 10
130.4468104465152
 20
182.029770308428
 10
130.499369684512
 20
181.9614066948925
 10
130.5499910562984
 20
181.8955623074307
 10
130.6006339599316
 20
181.8297609836624
 10
130.6537745577915
 20
181.7660697808789
 10
130.7021135538189
 20
181.7081060493396
 10
130.7529287122264
 20
181.6525108209463
 10
130.8033132336982
 20
181.5963988282303
 10
130.9423659002216
 20
181.4414556587812
 10
131.0876197386184
 20
181.2924337471974
 10
131.2412064017202
 20
181.1522183609477
 10
131.256192567081
 20
181.1385241063939
 10
131.2701236719495
 20
181.1237532595008
 10
131.2852605602379
 20
181.1102312597212
 10
131.3682442977388
 20
181.0359248564737
 10
131.4547161944185
 20
180.9656449085746
 10
131.5415541324936
 20
180.8958386613048
 10
131.5769524886046
 20
180.8673950917047
 10
131.6118986759331
 20
180.8385424170157
 10
131.647899923754
 20
180.810852462053
 10
131.7383336802418
 20
180.7413261287913
 10
131.8306407073997
 20
180.6741682986757
 10
131.9247994733809
 20
180.6096158220208
 10
131.9539966576184
 20
180.5896127363596
 10
131.9836244787915
 20
180.570341733489
 10
132.0131661725776
 20
180.5508338803038
 10
132.4654426142505
 20
180.251907251418
 10
132.9571653992296
 20
180.0099969528131
 10
133.4782576232204
 20
179.8362780129694
 10
133.4869349574739
 20
179.8333927455005
 10
133.4952677821788
 20
179.8296892678539
 10
133.5039666482791
 20
179.8268255322317
 10
133.947962574061
 20
179.6809965766048
 10
134.2247841564693
 20
179.2210939393398
 10
134.0895288666817
 20
178.7365574656136
 10
133.9807942502433
 20
178.3470282449535
 10
133.5963138495219
 20
178.0983125911252
 10
133.1918929913054
 20
178.0983126075302
 10
133.1918929913054
 20
178.0983126075302
 10
113.8161884426913
 20
178.0983133934903
 10
113.8161884426913
 20
178.0983133934903
 97
        0
 97
        1
330
91
 92
        1
 93
        1
 72
     4
 94
        3
 73
     0
 74
     0
 95
      350
 96
      346
 40
0.0
 40
0.0
 40
0.0
 40
0.0
 40
1.0
 40
1.0
 40
1.0
 40
2.0
 40
2.0
 40
2.0
 40
3.0
 40
3.0
 40
3.0
 40
4.0
 40
4.0
 40
4.0
 40
5.0
 40
5.0
 40
5.0
 40
6.0
 40
6.0
 40
6.0
 40
7.0
 40
7.0
 40
7.0
 40
8.0
 40
8.0
 40
8.0
 40
9.0
 40
9.0
 40
9.0
 40
10.0
 40
10.0
 40
10.0
 40
11.0
 40
11.0
 40
11.0
 40
12.0
 40
12.0
 40
12.0
 40
13.0
 40
13.0
 40
13.0
 40
14.0
 40
14.0
 40
14.0
 40
15.0
 40
15.0
 40
15.0
 40
16.0
 40
16.0
 40
16.0
 40
17.0
 40
17.0
 40
17.0
 40
18.0
 40
18.0
 40
18.0
 40
19.0
 40
19.0
 40
19.0
 40
20.0
 40
20.0
 40
20.0
 40
21.0
 40
21.0
 40
21.0
 40
22.0
 40
22.0
 40
22.0
 40
23.0
 40
23.0
 40
23.0
 40
24.0
 40
24.0
 40
24.0
 40
25.0
 40
25.0
 40
25.0
 40
26.0
 40
26.0
 40
26.0
 40
27.0
 40
27.0
 40
27.0
 40
28.0
 40
28.0
 40
28.0
 40
29.0
 40
29.0
 40
29.0
 40
30.0
 40
30.0
 40
30.0
 40
31.0
 40
31.0
 40
31.0
 40
32.0
 40
32.0
 40
32.0
 40
33.0
 40
33.0
 40
33.0
 40
34.0
 40
34.0
 40
34.0
 40
35.0
 40
35.0
 40
35.0
 40
36.0
 40
36.0
 40
36.0
 40
37.0
 40
37.0
 40
37.0
 40
38.0
 40
38.0
 40
38.0
 40
39.0
 40
39.0
 40
39.0
 40
40.0
 40
40.0
 40
40.0
 40
41.0
 40
41.0
 40
41.0
 40
42.0
 40
42.0
 40
42.0
 40
43.0
 40
43.0
 40
43.0
 40
44.0
 40
44.0
 40
44.0
 40
45.0
 40
45.0
 40
45.0
 40
46.0
 40
46.0
 40
46.0
 40
47.0
 40
47.0
 40
47.0
 40
48.0
 40
48.0
 40
48.0
 40
49.0
 40
49.0
 40
49.0
 40
50.0
 40
50.0
 40
50.0
 40
51.0
 40
51.0
 40
51.0
 40
52.0
 40
52.0
 40
52.0
 40
53.0
 40
53.0
 40
53.0
 40
54.0
 40
54.0
 40
54.0
 40
55.0
 40
55.0
 40
55.0
 40
56.0
 40
56.0
 40
56.0
 40
57.0
 40
57.0
 40
57.0
 40
58.0
 40
58.0
 40
58.0
 40
59.0
 40
59.0
 40
59.0
 40
60.0
 40
60.0
 40
60.0
 40
61.0
 40
61.0
 40
61.0
 40
62.0
 40
62.0
 40
62.0
 40
63.0
 40
63.0
 40
63.0
 40
64.0
 40
64.0
 40
64.0
 40
65.0
 40
65.0
 40
65.0
 40
66.0
 40
66.0
 40
66.0
 40
67.0
 40
67.0
 40
67.0
 40
68.0
 40
68.0
 40
68.0
 40
69.0
 40
69.0
 40
69.0
 40
70.0
 40
70.0
 40
70.0
 40
71.0
 40
71.0
 40
71.0
 40
72.0
 40
72.0
 40
72.0
 40
73.0
 40
73.0
 40
73.0
 40
74.0
 40
74.0
 40
74.0
 40
75.0
 40
75.0
 40
75.0
 40
76.0
 40
76.0
 40
76.0
 40
77.0
 40
77.0
 40
77.0
 40
78.0
 40
78.0
 40
78.0
 40
79.0
 40
79.0
 40
79.0
 40
80.0
 40
80.0
 40
80.0
 40
81.0
 40
81.0
 40
81.0
 40
82.0
 40
82.0
 40
82.0
 40
83.0
 40
83.0
 40
83.0
 40
84.0
 40
84.0
 40
84.0
 40
85.0
 40
85.0
 40
85.0
 40
86.0
 40
86.0
 40
86.0
 40
87.0
 40
87.0
 40
87.0
 40
88.0
 40
88.0
 40
88.0
 40
89.0
 40
89.0
 40
89.0
 40
90.0
 40
90.0
 40
90.0
 40
91.0
 40
91.0
 40
91.0
 40
92.0
 40
92.0
 40
92.0
 40
93.0
 40
93.0
 40
93.0
 40
94.0
 40
94.0
 40
94.0
 40
95.0
 40
95.0
 40
95.0
 40
96.0
 40
96.0
 40
96.0
 40
97.0
 40
97.0
 40
97.0
 40
98.0
 40
98.0
 40
98.0
 40
99.0
 40
99.0
 40
99.0
 40
100.0
 40
100.0
 40
100.0
 40
101.0
 40
101.0
 40
101.0
 40
102.0
 40
102.0
 40
102.0
 40
103.0
 40
103.0
 40
103.0
 40
104.0
 40
104.0
 40
104.0
 40
105.0
 40
105.0
 40
105.0
 40
106.0
 40
106.0
 40
106.0
 40
107.0
 40
107.0
 40
107.0
 40
108.0
 40
108.0
 40
108.0
 40
109.0
 40
109.0
 40
109.0
 40
110.0
 40
110.0
 40
110.0
 40
111.0
 40
111.0
 40
111.0
 40
112.0
 40
112.0
 40
112.0
 40
113.0
 40
113.0
 40
113.0
 40
114.0
 40
114.0
 40
114.0
 40
115.0
 40
115.0
 40
115.0
 40
115.0
 10
290.5177246114141
 20
184.1001435039824
 10
290.5177246114141
 20
184.1001435039824
 10
282.7570226073321
 20
184.1001435039824
 10
282.7570226073321
 20
184.1001435039824
 10
282.7570226073321
 20
184.1001435039824
 10
274.2665417202403
 20
184.1001435039824
 10
274.2665417202403
 20
184.1001435039824
 10
273.4017728020583
 20
184.1001435039824
 10
272.6699683167653
 20
184.7389925716369
 10
272.5532109757597
 20
185.5958432034121
 10
272.5532109757597
 20
185.5958432034121
 10
270.2418717244148
 20
202.5581385135581
 10
270.2418717244148
 20
202.5581385135581
 10
270.1251129449175
 20
203.4149997020391
 10
269.3932994435323
 20
204.0538566405413
 10
268.5285198710889
 20
204.0538566405413
 10
268.5285198710889
 20
204.0538566405413
 10
240.7326879756271
 20
204.0538566405413
 10
240.7326879756271
 20
204.0538566405413
 10
239.867888299442
 20
204.0538566405413
 10
239.1360577493518
 20
203.4149849283943
 10
239.0192961100201
 20
202.5581038400801
 10
239.0192961100201
 20
202.5581038400801
 10
236.7079600171191
 20
185.5958532407504
 10
236.7079600171191
 20
185.5958532407504
 10
236.5912017394293
 20
184.7389968225985
 10
235.8593922592164
 20
184.1001435039824
 10
234.9946174811748
 20
184.1001435039824
 10
234.9946174811748
 20
184.1001435039824
 10
228.0137017320749
 20
184.1001435039824
 10
228.0137017320749
 20
184.1001435039824
 10
227.1489329255459
 20
184.1001435039824
 10
226.4171284986834
 20
184.7389924111364
 10
226.3003710272422
 20
185.5958429124542
 10
226.3003710272422
 20
185.5958429124542
 10
223.9890335269721
 20
202.5581038400801
 10
223.9890335269721
 20
202.5581038400801
 10
223.8722718876391
 20
203.4149849283943
 10
223.1404413375501
 20
204.0538566405413
 10
222.275641661365
 20
204.0538566405413
 10
222.275641661365
 20
204.0538566405413
 10
194.4798097659031
 20
204.0538566405413
 10
194.4798097659031
 20
204.0538566405413
 10
193.6150275815997
 20
204.0538566405413
 10
192.8832121706105
 20
203.4149971219656
 10
192.7664542518537
 20
202.5581331802019
 10
192.7664542518537
 20
202.5581331802019
 10
190.4551415608004
 20
185.5958532407504
 10
190.4551415608004
 20
185.5958532407504
 10
190.3383847133216
 20
184.73899716089
 10
189.6065760168889
 20
184.1001435039824
 10
188.7418017671414
 20
184.1001435039824
 10
188.7418017671414
 20
184.1001435039824
 10
181.7608516137608
 20
184.1001435039824
 10
181.7608516137608
 20
184.1001435039824
 10
180.8960648018074
 20
184.1001435039824
 10
180.164245402592
 20
184.7390062852112
 10
180.0474865680138
 20
185.5958747725972
 10
180.0474865680138
 20
185.5958747725972
 10
177.7361733746771
 20
202.5581153345337
 10
177.7361733746771
 20
202.5581153345337
 10
177.6194137565664
 20
203.4149895721007
 10
176.8875894463358
 20
204.0538566405413
 10
176.0227968310643
 20
204.0538566405413
 10
176.0227968310643
 20
204.0538566405413
 10
148.2269697777357
 20
204.0538566405413
 10
148.2269697777357
 20
204.0538566405413
 10
147.3621796626886
 20
204.0538566405413
 10
146.6303572036435
 20
203.4149919916953
 10
146.5135968552159
 20
202.5581203769717
 10
146.5135968552159
 20
202.5581203769717
 10
144.2022571015702
 20
185.5958429124536
 10
144.2022571015702
 20
185.5958429124536
 10
144.0854996301296
 20
184.7389924111364
 10
143.3536952032671
 20
184.1001435039824
 10
142.4889263967388
 20
184.1001435039824
 10
142.4889263967388
 20
184.1001435039824
 10
135.51941210269
 20
184.1001435039824
 10
135.51941210269
 20
184.1001435039824
 10
134.6546448232962
 20
184.1001435039824
 10
133.9228411956115
 20
184.7389902159129
 10
133.8060819401623
 20
185.5958389328858
 10
133.8060819401623
 20
185.5958389328858
 10
131.4947008338943
 20
202.5581253719266
 10
131.4947008338943
 20
202.5581253719266
 10
131.3779387806711
 20
203.4149946206265
 10
130.6461176175781
 20
204.0538566405413
 10
129.781329616712
 20
204.0538566405413
 10
129.781329616712
 20
204.0538566405413
 10
101.9855632002125
 20
204.0538566405413
 10
101.9855632002125
 20
204.0538566405413
 10
101.1207720264489
 20
204.0538566405413
 10
100.3889484705756
 20
203.4149916442576
 10
100.2721871684484
 20
202.5581190909889
 10
100.2721871684484
 20
202.5581190909889
 10
98.02445700681261
 20
186.0627713382357
 10
98.02445700681261
 20
186.0627713382357
 10
97.88298915156026
 20
185.0245855684082
 10
98.69000563977664
 20
184.1001435039824
 10
99.73778560080901
 20
184.1001435039824
 10
99.73778560080901
 20
184.1001435039824
 10
105.8617859368824
 20
184.1001435039824
 10
105.8617859368824
 20
184.1001435039824
 10
106.8167854328585
 20
184.1001435039824
 10
107.5909654883165
 20
183.3259634485245
 10
107.5909654883165
 20
182.3709639525484
 10
107.5909654883165
 20
182.3709639525484
 10
107.5909654883165
 20
179.8865979389008
 10
107.5909654883165
 20
179.8865979389008
 10
107.5909654883165
 20
178.9315984429247
 10
106.8167854328585
 20
178.1574183874668
 10
105.8617859368824
 20
178.1574183874668
 10
105.8617859368824
 20
178.1574183874668
 10
99.46032722377793
 20
178.1574183874668
 10
99.46032722377793
 20
178.1574183874668
 10
98.85684043116395
 20
178.1574183874668
 10
98.29702873282982
 20
177.8427334094021
 10
97.98335271130422
 20
177.3271719073684
 10
97.98335271130422
 20
177.3271719073684
 10
97.7570314697701
 20
176.9551877223485
 10
97.7570314697701
 20
176.9551877223485
 10
97.7570314697701
 20
176.9551877223485
 10
96.79384736763459
 20
175.3724677927312
 10
96.79384736763459
 20
175.3724677927312
 10
96.48007463395844
 20
174.8568712854187
 10
95.92017864435696
 20
174.5421782489392
 10
95.31661167479061
 20
174.5421782489392
 10
95.31661167479061
 20
174.5421782489392
 10
90.66052234339688
 20
174.5421782489392
 10
90.66052234339688
 20
174.5421782489392
 10
90.0569648281615
 20
174.5421782489392
 10
89.49708024255814
 20
174.8568753197248
 10
89.18332704145543
 20
175.3724726461288
 10
89.18332704145543
 20
175.3724726461288
 10
87.99384618303987
 20
177.3271719073684
 10
87.99384618303987
 20
177.3271719073684
 10
87.68011108893702
 20
177.8427394781533
 10
87.12025881481309
 20
178.1574183874668
 10
86.51673613146426
 20
178.1574183874668
 10
86.51673613146426
 20
178.1574183874668
 10
78.9760934319306
 20
178.1574183874668
 10
78.9760934319306
 20
178.1574183874668
 10
78.02109393595387
 20
178.1574183874668
 10
77.24691388049658
 20
177.3832383320089
 10
77.24691388049658
 20
176.4282388360328
 10
77.24691388049658
 20
176.4282388360328
 10
77.24691388049658
 20
175.2413819095174
 10
77.24691388049658
 20
175.2413819095174
 10
77.24691388049658
 20
174.2863824135413
 10
78.02109393595387
 20
173.5122023580834
 10
78.9760934319306
 20
173.5122023580834
 10
78.9760934319306
 20
173.5122023580834
 10
83.85859302122023
 20
173.5122023580834
 10
83.85859302122023
 20
173.5122023580834
 10
84.46211970130107
 20
173.5122023580834
 10
85.02197649380311
 20
173.1975241244739
 10
85.33571816585503
 20
172.681955877985
 10
85.33571816585503
 20
172.681955877985
 10
86.23312736911085
 20
171.2072531829942
 10
86.23312736911085
 20
171.2072531829942
 10
86.54688227600138
 20
170.6916631878413
 10
87.10676268543059
 20
170.376971679885
 10
87.71031482460383
 20
170.376971679885
 10
87.71031482460383
 20
170.376971679885
 10
97.7570314697701
 20
170.376971679885
 10
97.7570314697701
 20
170.376971679885
 10
97.7570314697701
 20
170.376971679885
 10
98.62799467213482
 20
170.376971679885
 10
98.62799467213482
 20
170.376971679885
 10
99.23157123009593
 20
170.376971679885
 10
99.79147665854931
 20
170.6916678633882
 10
100.1052573974428
 20
171.2072707233678
 10
100.1052573974428
 20
171.2072707233678
 10
101.0027205219643
 20
172.6819774098317
 10
101.0027205219643
 20
172.6819774098317
 10
101.3164732593134
 20
173.1975342578206
 10
101.8763287222458
 20
173.5122023580885
 10
102.4798514175126
 20
173.5122023580962
 10
102.4798514175126
 20
173.5122023580962
 10
126.1777479195915
 20
173.512202358412
 10
126.1777479195915
 20
173.512202358412
 10
127.1430238130589
 20
173.5122023584248
 10
127.8645512548638
 20
172.7128378117689
 10
127.8838316451092
 20
171.7477544904638
 10
127.9025854363909
 20
170.8090301728248
 10
128.6694208057405
 20
170.0538432552154
 10
129.6126451703022
 20
170.0538432552154
 10
129.6126451703022
 20
170.0538432552154
 10
132.2692874900591
 20
170.0538432552154
 10
132.2692874900591
 20
170.0538432552154
 10
133.2242869860352
 20
170.0538432552154
 10
133.9984670414931
 20
170.8280233106733
 10
133.9984670414931
 20
171.7830228066494
 10
133.9984670414931
 20
171.7830228066494
 10
133.9984670414931
 20
171.7830658703429
 10
133.9984670414931
 20
171.7830658703429
 10
133.9984670414931
 20
172.7380415829056
 10
134.7726278166677
 20
173.5122023581065
 10
135.727603529231
 20
173.5122023581386
 10
135.727603529231
 20
173.5122023581386
 10
142.2927418798784
 20
173.5122023583593
 10
142.2927418798784
 20
173.5122023583593
 10
143.2580177733307
 20
173.5122023583914
 10
143.9795452151356
 20
172.7128378117535
 10
143.998825605381
 20
171.7477544904638
 10
144.0175793966633
 20
170.8090301728248
 10
144.7844147660136
 20
170.0538432552154
 10
145.7276391305747
 20
170.0538432552154
 10
145.7276391305747
 20
170.0538432552154
 10
148.39573639282
 20
170.0538432552154
 10
148.39573639282
 20
170.0538432552154
 10
149.350712105375
 20
170.0538432552154
 10
150.1248728805605
 20
170.8280040304009
 10
150.1248728805605
 20
171.7829797429558
 10
150.1248728805605
 20
171.7829797429558
 10
150.1248728805605
 20
171.7830658703429
 10
150.1248728805605
 20
171.7830658703429
 10
150.1248728805605
 20
172.7380415829005
 10
150.8990336557409
 20
173.5122023580911
 10
151.8540093682984
 20
173.5122023581052
 10
151.8540093682984
 20
173.5122023581052
 10
172.4191760289643
 20
173.5122023584081
 10
172.4191760289643
 20
173.5122023584081
 10
173.3844519224302
 20
173.5122023584222
 10
174.105979364235
 20
172.7128378117677
 10
174.1252597544811
 20
171.7477544904638
 10
174.1440135457621
 20
170.8090301728248
 10
174.910848915113
 20
170.0538432552154
 10
175.8540732796742
 20
170.0538432552154
 10
175.8540732796742
 20
170.0538432552154
 10
178.5221274782259
 20
170.0538432552154
 10
178.5221274782259
 20
170.0538432552154
 10
179.477126974202
 20
170.0538432552154
 10
180.2513070296599
 20
170.8280233106733
 10
180.2513070296599
 20
171.7830228066494
 10
180.2513070296599
 20
171.7830228066494
 10
180.2513070296599
 20
171.7830658703429
 10
180.2513070296599
 20
171.7830658703429
 10
180.2513070296599
 20
172.7380415828966
 10
181.0254678048441
 20
173.5122023580808
 10
181.9804435173978
 20
173.5122023580808
 10
181.9804435173978
 20
173.5122023580808
 10
188.522163079567
 20
173.5122023580834
 10
188.522163079567
 20
173.5122023580834
 10
189.477150683832
 20
173.5122023580834
 10
190.2513210991543
 20
172.7380319427617
 10
190.2513210991543
 20
171.7830443384962
 10
190.2513210991543
 20
171.7830443384962
 10
190.2513210991543
 20
171.7830228066494
 10
190.2513210991543
 20
171.7830228066494
 10
190.2513210991543
 20
170.8280233106733
 10
191.0255011546122
 20
170.0538432552154
 10
191.9805006505883
 20
170.0538432552154
 10
191.9805006505883
 20
170.0538432552154
 10
194.6485979128336
 20
170.0538432552154
 10
194.6485979128336
 20
170.0538432552154
 10
195.6035736253886
 20
170.0538432552154
 10
196.3777344005741
 20
170.8280040304009
 10
196.3777344005741
 20
171.7829797429558
 10
196.3777344005741
 20
171.7829797429558
 10
196.3777344005741
 20
171.7830658703429
 10
196.3777344005741
 20
171.7830658703429
 10
196.3777344005741
 20
172.7380415829005
 10
197.1518951757532
 20
173.5122023580911
 10
198.1068708883107
 20
173.5122023581052
 10
198.1068708883107
 20
173.5122023581052
 10
218.6720375489767
 20
173.5122023584081
 10
218.6720375489767
 20
173.5122023584081
 10
219.6373134424426
 20
173.5122023584222
 10
220.3588408842473
 20
172.7128378117677
 10
220.3781212744934
 20
171.7477544904638
 10
220.3968750657745
 20
170.8090301728248
 10
221.1637104351253
 20
170.0538432552154
 10
222.1069347996865
 20
170.0538432552154
 10
222.1069347996865
 20
170.0538432552154
 10
224.7750320619318
 20
170.0538432552154
 10
224.7750320619318
 20
170.0538432552154
 10
225.7300077744868
 20
170.0538432552154
 10
226.5041685496723
 20
170.8280040304009
 10
226.5041685496723
 20
171.7829797429558
 10
226.5041685496723
 20
171.7829797429558
 10
226.5041685496723
 20
171.7830658703429
 10
226.5041685496723
 20
171.7830658703429
 10
226.5041685496723
 20
172.7380415829056
 10
227.2783293248462
 20
173.5122023581059
 10
228.2333050374089
 20
173.512202358138
 10
228.2333050374089
 20
173.512202358138
 10
234.7984433880594
 20
173.5122023583587
 10
234.7984433880594
 20
173.5122023583587
 10
235.7637192815112
 20
173.5122023583914
 10
236.4852467233147
 20
172.7128378117535
 10
236.5045271135608
 20
171.7477544904638
 10
236.5232809048418
 20
170.8090301728248
 10
237.2901162741927
 20
170.0538432552154
 10
238.2333406387539
 20
170.0538432552154
 10
238.2333406387539
 20
170.0538432552154
 10
240.9269100757432
 20
170.0538432552154
 10
240.9269100757432
 20
170.0538432552154
 10
241.8818976800082
 20
170.0538432552154
 10
242.6560680953305
 20
170.8280136705371
 10
242.6560680953305
 20
171.7830012748026
 10
242.6560680953305
 20
171.7830012748026
 10
242.6560680953305
 20
171.7830658703442
 10
242.6560680953305
 20
171.7830658703442
 10
242.6560680953305
 20
172.7380415829069
 10
243.4302288705083
 20
173.5122023581052
 10
244.3852045830709
 20
173.5122023581296
 10
244.3852045830709
 20
173.5122023581296
 10
253.9927282885821
 20
173.5122023583786
 10
253.9927282885821
 20
173.5122023583786
 10
254.9580041820403
 20
173.5122023584043
 10
255.6795316238451
 20
172.7128378117593
 10
255.6988120140899
 20
171.7477544904638
 10
255.717565805371
 20
170.8090301728248
 10
256.4844011747218
 20
170.0538432552154
 10
257.427625539283
 20
170.0538432552154
 10
257.427625539283
 20
170.0538432552154
 10
260.0843109227334
 20
170.0538432552154
 10
260.0843109227334
 20
170.0538432552154
 10
261.0392985269983
 20
170.0538432552154
 10
261.8134689423206
 20
170.8280136705371
 10
261.8134689423206
 20
171.7830012748026
 10
261.8134689423206
 20
171.7830012748026
 10
261.8134689423206
 20
173.5122023580834
 10
261.8134689423206
 20
173.5122023580834
 10
261.8134689423206
 20
173.5122023580834
 10
261.8134689423206
 20
176.4282388360328
 10
261.8134689423206
 20
176.4282388360328
 10
261.8134689423206
 20
178.098313468048
 10
261.8134689423206
 20
178.1574183874668
 10
263.5426484937546
 20
178.1574183874668
 10
263.5426484937546
 20
178.1574183874668
 10
282.7570226073321
 20
178.1574183874668
 10
282.7570226073321
 20
178.1574183874668
 10
282.7570226073321
 20
178.1574183874668
 10
290.5177461432609
 20
178.1574183874668
 10
290.5177461432609
 20
178.1574183874668
 10
291.4727218558159
 20
178.1574183874668
 10
292.2468826310014
 20
178.9315791626523
 10
292.2468826310014
 20
179.8865548752073
 10
292.2468826310014
 20
179.8865548752073
 10
292.2468826310014
 20
182.3709854843952
 10
292.2468826310014
 20
182.3709854843952
 10
292.2468826310014
 20
183.3259730886607
 10
291.472712215679
 20
184.1001435039824
 10
290.5177246114141
 20
184.1001435039824
 97
        0
 97
        1
330
92
 75
     2
 76
     1
 98
        1
 10
0.0
 20
0.0
450
        0
451
        0
460
0.0
461
0.0
452
        0
462
0.0
453
        0
470

  0
SPLINE
  5
94
330
8A
100
AcDbEntity
  8
Calque 4
 62
   250
420
  1907995
370
    35
100
AcDbSpline
210
0.0
220
0.0
230
1.0
 70
    11
 71
     3
 72
   371
 73
   367
 74
     0
 42
0.0000000001
 43
0.0000000001
 40
0.0
 40
0.0
 40
0.0
 40
0.0
 40
1.0
 40
1.0
 40
1.0
 40
2.0
 40
2.0
 40
2.0
 40
3.0
 40
3.0
 40
3.0
 40
4.0
 40
4.0
 40
4.0
 40
5.0
 40
5.0
 40
5.0
 40
6.0
 40
6.0
 40
6.0
 40
7.0
 40
7.0
 40
7.0
 40
8.0
 40
8.0
 40
8.0
 40
9.0
 40
9.0
 40
9.0
 40
10.0
 40
10.0
 40
10.0
 40
11.0
 40
11.0
 40
11.0
 40
12.0
 40
12.0
 40
12.0
 40
13.0
 40
13.0
 40
13.0
 40
14.0
 40
14.0
 40
14.0
 40
15.0
 40
15.0
 40
15.0
 40
16.0
 40
16.0
 40
16.0
 40
17.0
 40
17.0
 40
17.0
 40
18.0
 40
18.0
 40
18.0
 40
19.0
 40
19.0
 40
19.0
 40
20.0
 40
20.0
 40
20.0
 40
21.0
 40
21.0
 40
21.0
 40
22.0
 40
22.0
 40
22.0
 40
23.0
 40
23.0
 40
23.0
 40
24.0
 40
24.0
 40
24.0
 40
25.0
 40
25.0
 40
25.0
 40
26.0
 40
26.0
 40
26.0
 40
27.0
 40
27.0
 40
27.0
 40
28.0
 40
28.0
 40
28.0
 40
29.0
 40
29.0
 40
29.0
 40
30.0
 40
30.0
 40
30.0
 40
31.0
 40
31.0
 40
31.0
 40
32.0
 40
32.0
 40
32.0
 40
33.0
 40
33.0
 40
33.0
 40
34.0
 40
34.0
 40
34.0
 40
35.0
 40
35.0
 40
35.0
 40
36.0
 40
36.0
 40
36.0
 40
37.0
 40
37.0
 40
37.0
 40
38.0
 40
38.0
 40
38.0
 40
39.0
 40
39.0
 40
39.0
 40
40.0
 40
40.0
 40
40.0
 40
41.0
 40
41.0
 40
41.0
 40
42.0
 40
42.0
 40
42.0
 40
43.0
 40
43.0
 40
43.0
 40
44.0
 40
44.0
 40
44.0
 40
45.0
 40
45.0
 40
45.0
 40
46.0
 40
46.0
 40
46.0
 40
47.0
 40
47.0
 40
47.0
 40
48.0
 40
48.0
 40
48.0
 40
49.0
 40
49.0
 40
49.0
 40
50.0
 40
50.0
 40
50.0
 40
51.0
 40
51.0
 40
51.0
 40
52.0
 40
52.0
 40
52.0
 40
53.0
 40
53.0
 40
53.0
 40
54.0
 40
54.0
 40
54.0
 40
55.0
 40
55.0
 40
55.0
 40
56.0
 40
56.0
 40
56.0
 40
57.0
 40
57.0
 40
57.0
 40
58.0
 40
58.0
 40
58.0
 40
59.0
 40
59.0
 40
59.0
 40
60.0
 40
60.0
 40
60.0
 40
61.0
 40
61.0
 40
61.0
 40
62.0
 40
62.0
 40
62.0
 40
63.0
 40
63.0
 40
63.0
 40
64.0
 40
64.0
 40
64.0
 40
65.0
 40
65.0
 40
65.0
 40
66.0
 40
66.0
 40
66.0
 40
67.0
 40
67.0
 40
67.0
 40
68.0
 40
68.0
 40
68.0
 40
69.0
 40
69.0
 40
69.0
 40
70.0
 40
70.0
 40
70.0
 40
71.0
 40
71.0
 40
71.0
 40
72.0
 40
72.0
 40
72.0
 40
73.0
 40
73.0
 40
73.0
 40
74.0
 40
74.0
 40
74.0
 40
75.0
 40
75.0
 40
75.0
 40
76.0
 40
76.0
 40
76.0
 40
77.0
 40
77.0
 40
77.0
 40
78.0
 40
78.0
 40
78.0
 40
79.0
 40
79.0
 40
79.0
 40
80.0
 40
80.0
 40
80.0
 40
81.0
 40
81.0
 40
81.0
 40
82.0
 40
82.0
 40
82.0
 40
83.0
 40
83.0
 40
83.0
 40
84.0
 40
84.0
 40
84.0
 40
85.0
 40
85.0
 40
85.0
 40
86.0
 40
86.0
 40
86.0
 40
87.0
 40
87.0
 40
87.0
 40
88.0
 40
88.0
 40
88.0
 40
89.0
 40
89.0
 40
89.0
 40
90.0
 40
90.0
 40
90.0
 40
91.0
 40
91.0
 40
91.0
 40
92.0
 40
92.0
 40
92.0
 40
93.0
 40
93.0
 40
93.0
 40
94.0
 40
94.0
 40
94.0
 40
95.0
 40
95.0
 40
95.0
 40
96.0
 40
96.0
 40
96.0
 40
97.0
 40
97.0
 40
97.0
 40
98.0
 40
98.0
 40
98.0
 40
99.0
 40
99.0
 40
99.0
 40
100.0
 40
100.0
 40
100.0
 40
101.0
 40
101.0
 40
101.0
 40
102.0
 40
102.0
 40
102.0
 40
103.0
 40
103.0
 40
103.0
 40
104.0
 40
104.0
 40
104.0
 40
105.0
 40
105.0
 40
105.0
 40
106.0
 40
106.0
 40
106.0
 40
107.0
 40
107.0
 40
107.0
 40
108.0
 40
108.0
 40
108.0
 40
109.0
 40
109.0
 40
109.0
 40
110.0
 40
110.0
 40
110.0
 40
111.0
 40
111.0
 40
111.0
 40
112.0
 40
112.0
 40
112.0
 40
113.0
 40
113.0
 40
113.0
 40
114.0
 40
114.0
 40
114.0
 40
115.0
 40
115.0
 40
115.0
 40
116.0
 40
116.0
 40
116.0
 40
117.0
 40
117.0
 40
117.0
 40
118.0
 40
118.0
 40
118.0
 40
119.0
 40
119.0
 40
119.0
 40
120.0
 40
120.0
 40
120.0
 40
121.0
 40
121.0
 40
121.0
 40
122.0
 40
122.0
 40
122.0
 40
122.0
 10
282.7570226073321
 20
184.1001435039824
 30
0.0
 10
282.7570226073321
 20
184.1001435039824
 30
0.0
 10
274.1718558526268
 20
184.1001435039824
 30
0.0
 10
274.1718558526268
 20
184.1001435039824
 30
0.0
 10
273.3613357565872
 20
184.1001435039824
 30
0.0
 10
272.6754387508237
 20
184.698915764454
 30
0.0
 10
272.5660050568647
 20
185.502014197219
 30
0.0
 10
272.5660050568647
 20
185.502014197219
 30
0.0
 10
270.2290780663101
 20
202.651964415458
 30
0.0
 10
270.2290780663101
 20
202.651964415458
 30
0.0
 10
270.1196443723511
 20
203.4550628482231
 30
0.0
 10
269.4337473665876
 20
204.0538351086945
 30
0.0
 10
268.6232272705492
 20
204.0538351086945
 30
0.0
 10
268.6232272705492
 20
204.0538351086945
 30
0.0
 10
240.6379638864552
 20
204.0538351086945
 30
0.0
 10
240.6379638864552
 20
204.0538351086945
 30
0.0
 10
239.8274437904155
 20
204.0538351086945
 30
0.0
 10
239.141546784652
 20
203.4550628482231
 30
0.0
 10
239.032113090693
 20
202.651964415458
 30
0.0
 10
239.032113090693
 20
202.651964415458
 30
0.0
 10
236.6951861001385
 20
185.502014197219
 30
0.0
 10
236.6951861001385
 20
185.502014197219
 30
0.0
 10
236.5857524061794
 20
184.698915764454
 30
0.0
 10
235.899855400416
 20
184.1001435039824
 30
0.0
 10
235.0893353043776
 20
184.1001435039824
 30
0.0
 10
235.0893353043776
 20
184.1001435039824
 30
0.0
 10
227.9189943326145
 20
184.1001435039824
 30
0.0
 10
227.9189943326145
 20
184.1001435039824
 30
0.0
 10
227.1084742365748
 20
184.1001435039824
 30
0.0
 10
226.4225772308114
 20
184.698915764454
 30
0.0
 10
226.3131435368523
 20
185.502014197219
 30
0.0
 10
226.3131435368523
 20
185.502014197219
 30
0.0
 10
223.9762165462979
 20
202.651964415458
 30
0.0
 10
223.9762165462979
 20
202.651964415458
 30
0.0
 10
223.8667828523388
 20
203.4550628482231
 30
0.0
 10
223.1808858465753
 20
204.0538351086945
 30
0.0
 10
222.3703657505369
 20
204.0538351086945
 30
0.0
 10
222.3703657505369
 20
204.0538351086945
 30
0.0
 10
194.3851038791893
 20
204.0538351086945
 30
0.0
 10
194.3851038791893
 20
204.0538351086945
 30
0.0
 10
193.5745831303004
 20
204.0538351086945
 30
0.0
 10
192.8886857828912
 20
203.45506190976
 30
0.0
 10
192.7792528516056
 20
202.6519627141877
 30
0.0
 10
192.7792528516056
 20
202.6519627141877
 30
0.0
 10
190.442344831048
 20
185.5020158984889
 30
0.0
 10
190.442344831048
 20
185.5020158984889
 30
0.0
 10
190.3329118997624
 20
184.6989167029169
 30
0.0
 10
189.6470145523532
 20
184.1001435039824
 30
0.0
 10
188.8364938034643
 20
184.1001435039824
 30
0.0
 10
188.8364938034643
 20
184.1001435039824
 30
0.0
 10
181.6661343253487
 20
184.1001435039824
 30
0.0
 10
181.6661343253487
 20
184.1001435039824
 30
0.0
 10
180.8556135764598
 20
184.1001435039824
 30
0.0
 10
180.1697162290506
 20
184.6989167029169
 30
0.0
 10
180.060283297765
 20
185.5020158984889
 30
0.0
 10
180.060283297765
 20
185.5020158984889
 30
0.0
 10
177.7233752772073
 20
202.6519627141877
 30
0.0
 10
177.7233752772073
 20
202.6519627141877
 30
0.0
 10
177.6139423459217
 20
203.45506190976
 30
0.0
 10
176.9280449985125
 20
204.0538351086945
 30
0.0
 10
176.1175242496237
 20
204.0538351086945
 30
0.0
 10
176.1175242496237
 20
204.0538351086945
 30
0.0
 10
148.1322423591764
 20
204.0538351086945
 30
0.0
 10
148.1322423591764
 20
204.0538351086945
 30
0.0
 10
147.3217216102875
 20
204.0538351086945
 30
0.0
 10
146.6358242628783
 20
203.45506190976
 30
0.0
 10
146.5263913315927
 20
202.6519627141877
 30
0.0
 10
146.5263913315927
 20
202.6519627141877
 30
0.0
 10
144.189483311035
 20
185.5020158984889
 30
0.0
 10
144.189483311035
 20
185.5020158984889
 30
0.0
 10
144.0800503797497
 20
184.6989167029169
 30
0.0
 10
143.3941530323405
 20
184.1001435039824
 30
0.0
 10
142.5836322834514
 20
184.1001435039824
 30
0.0
 10
142.5836322834514
 20
184.1001435039824
 30
0.0
 10
135.4247047032303
 20
184.1001435039824
 30
0.0
 10
135.4247047032303
 20
184.1001435039824
 30
0.0
 10
134.6141846071913
 20
184.1001435039824
 30
0.0
 10
133.9282876014278
 20
184.698915764454
 30
0.0
 10
133.8188539074687
 20
185.502014197219
 30
0.0
 10
133.8188539074687
 20
185.502014197219
 30
0.0
 10
131.4819269169142
 20
202.651964415458
 30
0.0
 10
131.4819269169142
 20
202.651964415458
 30
0.0
 10
131.3724932229552
 20
203.4550628482231
 30
0.0
 10
130.6865962171917
 20
204.0538351086945
 30
0.0
 10
129.8760761211527
 20
204.0538351086945
 30
0.0
 10
129.8760761211527
 20
204.0538351086945
 30
0.0
 10
101.8908127370586
 20
204.0538351086945
 30
0.0
 10
101.8908127370586
 20
204.0538351086945
 30
0.0
 10
101.0802926410196
 20
204.0538351086945
 30
0.0
 10
100.3943956352561
 20
203.4550628482231
 30
0.0
 10
100.2849619412971
 20
202.651964415458
 30
0.0
 10
100.2849619412971
 20
202.651964415458
 30
0.0
 10
98.00766974819254
 20
185.9396546591053
 30
0.0
 10
98.00766974819254
 20
185.9396546591053
 30
0.0
 10
97.87507636747569
 20
184.9665947869917
 30
0.0
 10
98.63146834609169
 20
184.1001435039824
 30
0.0
 10
99.6135205439541
 20
184.1001435039824
 30
0.0
 10
99.6135205439541
 20
184.1001435039824
 30
0.0
 10
105.9702745641367
 20
184.1001435039824
 30
0.0
 10
105.9702745641367
 20
184.1001435039824
 30
0.0
 10
106.8653574457502
 20
184.1001435039824
 30
0.0
 10
107.5909654883165
 20
183.3745354614162
 30
0.0
 10
107.5909654883165
 20
182.4794525798028
 30
0.0
 10
107.5909654883165
 20
182.4794525798028
 30
0.0
 10
107.5909654883165
 20
179.7781093116465
 30
0.0
 10
107.5909654883165
 20
179.7781093116465
 30
0.0
 10
107.5909654883165
 20
178.8830264300331
 30
0.0
 10
106.8653574457502
 20
178.1574183874668
 30
0.0
 10
105.9702745641367
 20
178.1574183874668
 30
0.0
 10
105.9702745641367
 20
178.1574183874668
 30
0.0
 10
99.39955368362603
 20
178.1574183874668
 30
0.0
 10
99.39955368362603
 20
178.1574183874668
 30
0.0
 10
98.83387906450323
 20
178.1574183874668
 30
0.0
 10
98.30913497246585
 20
177.8624777719011
 30
0.0
 10
98.01506799702556
 20
177.3792465760176
 30
0.0
 10
98.01506799702556
 20
177.3792465760176
 30
0.0
 10
97.75700993792332
 20
176.9551877223485
 30
0.0
 10
97.75700993792332
 20
176.9551877223485
 30
0.0
 10
97.75700993792332
 20
176.9551877223485
 30
0.0
 10
96.76215275149942
 20
175.3203553937866
 30
0.0
 10
96.76215275149942
 20
175.3203553937866
 30
0.0
 10
96.46808648159566
 20
174.8371211654579
 30
0.0
 10
95.94334066214875
 20
174.5421782489392
 30
0.0
 10
95.37766381931033
 20
174.5421782489392
 30
0.0
 10
95.37766381931033
 20
174.5421782489392
 30
0.0
 10
90.59955524083164
 20
174.5421782489392
 30
0.0
 10
90.59955524083164
 20
174.5421782489392
 30
0.0
 10
90.03387913748078
 20
174.5421782489392
 30
0.0
 10
89.50913389247579
 20
174.8371204002845
 30
0.0
 10
89.21506738794697
 20
175.3203536201863
 30
0.0
 10
89.21506738794697
 20
175.3203536201863
 30
0.0
 10
87.96215185364921
 20
177.3792430162197
 30
0.0
 10
87.96215185364921
 20
177.3792430162197
 30
0.0
 10
87.66808534912039
 20
177.8624762361215
 30
0.0
 10
87.1433401041154
 20
178.1574183874668
 30
0.0
 10
86.57766400076452
 20
178.1574183874668
 30
0.0
 10
86.57766400076452
 20
178.1574183874668
 30
0.0
 10
78.86760480467628
 20
178.1574183874668
 30
0.0
 10
78.86760480467628
 20
178.1574183874668
 30
0.0
 10
77.97252192306287
 20
178.1574183874668
 30
0.0
 10
77.24691388049658
 20
177.4318103449005
 30
0.0
 10
77.24691388049658
 20
176.5367274632871
 30
0.0
 10
77.24691388049658
 20
176.5367274632871
 30
0.0
 10
77.24691388049658
 20
175.1328932822631
 30
0.0
 10
77.24691388049658
 20
175.1328932822631
 30
0.0
 10
77.24691388049658
 20
174.2378104006497
 30
0.0
 10
77.97252192306287
 20
173.5122023580834
 30
0.0
 10
78.86760480467628
 20
173.5122023580834
 30
0.0
 10
78.86760480467628
 20
173.5122023580834
 30
0.0
 10
83.91953155416542
 20
173.5122023580834
 30
0.0
 10
83.91953155416542
 20
173.5122023580834
 30
0.0
 10
84.4852100553024
 20
173.5122023580834
 30
0.0
 10
85.00995716293511
 20
173.2172577256608
 30
0.0
 10
85.30402290668416
 20
172.7340212359353
 30
0.0
 10
85.30402290668416
 20
172.7340212359353
 30
0.0
 10
86.26481773523989
 20
171.1551528020331
 30
0.0
 10
86.26481773523989
 20
171.1551528020331
 30
0.0
 10
86.55888347898894
 20
170.6719163123076
 30
0.0
 10
87.08363058662198
 20
170.376971679885
 30
0.0
 10
87.64930908775864
 20
170.376971679885
 30
0.0
 10
87.64930908775864
 20
170.376971679885
 30
0.0
 10
97.75700993792332
 20
170.376971679885
 30
0.0
 10
97.75700993792332
 20
170.376971679885
 30
0.0
 10
97.75700993792332
 20
170.376971679885
 30
0.0
 10
98.68906515054346
 20
170.376971679885
 30
0.0
 10
98.68906515054346
 20
170.376971679885
 30
0.0
 10
99.25474357263404
 20
170.376971679885
 30
0.0
 10
99.77949061886127
 20
170.6719162305147
 30
0.0
 10
100.0735563876917
 20
171.155152612445
 30
0.0
 10
100.0735563876917
 20
171.155152612445
 30
0.0
 10
101.0343508048882
 20
172.7340198835058
 30
0.0
 10
101.0343508048882
 20
172.7340198835058
 30
0.0
 10
101.0343508048882
 20
172.7340198835058
 30
0.0
 10
101.0343512784384
 20
172.7340206616878
 30
0.0
 10
101.0343512784384
 20
172.7340206616878
 30
0.0
 10
101.3284169452843
 20
173.2172574807313
 30
0.0
 10
101.8531642398414
 20
173.5122023580834
 30
0.0
 10
102.4188429804052
 20
173.5122023580834
 30
0.0
 10
102.4188429804052
 20
173.5122023580834
 30
0.0
 10
126.2627531628417
 20
173.5122023580834
 30
0.0
 10
126.2627531628417
 20
173.5122023580834
 30
0.0
 10
127.1578360444552
 20
173.5122023580834
 30
0.0
 10
127.8834440870215
 20
172.7865943155171
 30
0.0
 10
127.8834440870215
 20
171.8915114339037
 30
0.0
 10
127.8834440870215
 20
171.8915114339037
 30
0.0
 10
127.8834440870215
 20
171.674534179395
 30
0.0
 10
127.8834440870215
 20
171.674534179395
 30
0.0
 10
127.8834440870215
 20
170.7794512977816
 30
0.0
 10
128.6090521295877
 20
170.0538432552154
 30
0.0
 10
129.5041350112012
 20
170.0538432552154
 30
0.0
 10
129.5041350112012
 20
170.0538432552154
 30
0.0
 10
132.3777761173134
 20
170.0538432552154
 30
0.0
 10
132.3777761173134
 20
170.0538432552154
 30
0.0
 10
133.2728589989268
 20
170.0538432552154
 30
0.0
 10
133.9984670414931
 20
170.7794512977816
 30
0.0
 10
133.9984670414931
 20
171.674534179395
 30
0.0
 10
133.9984670414931
 20
171.674534179395
 30
0.0
 10
133.9984670414931
 20
171.8915114339037
 30
0.0
 10
133.9984670414931
 20
171.8915114339037
 30
0.0
 10
133.9984670414931
 20
172.7865943155171
 30
0.0
 10
134.7240750840594
 20
173.5122023580834
 30
0.0
 10
135.6191579656728
 20
173.5122023580834
 30
0.0
 10
135.6191579656728
 20
173.5122023580834
 30
0.0
 10
142.377768654961
 20
173.5122023580834
 30
0.0
 10
142.377768654961
 20
173.5122023580834
 30
0.0
 10
143.2728515365744
 20
173.5122023580834
 30
0.0
 10
143.9984595791407
 20
172.7865943155171
 30
0.0
 10
143.9984595791407
 20
171.8915114339037
 30
0.0
 10
143.9984595791407
 20
171.8915114339037
 30
0.0
 10
143.9984595791407
 20
171.674534179395
 30
0.0
 10
143.9984595791407
 20
171.674534179395
 30
0.0
 10
143.9984595791407
 20
170.7794512977816
 30
0.0
 10
144.724067621707
 20
170.0538432552154
 30
0.0
 10
145.6191505033204
 20
170.0538432552154
 30
0.0
 10
145.6191505033204
 20
170.0538432552154
 30
0.0
 10
148.5042034882276
 20
170.0538432552154
 30
0.0
 10
148.5042034882276
 20
170.0538432552154
 30
0.0
 10
149.399286369841
 20
170.0538432552154
 30
0.0
 10
150.1248944124073
 20
170.7794512977816
 30
0.0
 10
150.1248944124073
 20
171.674534179395
 30
0.0
 10
150.1248944124073
 20
171.674534179395
 30
0.0
 10
150.1248944124073
 20
171.8915114339037
 30
0.0
 10
150.1248944124073
 20
171.8915114339037
 30
0.0
 10
150.1248944124073
 20
172.7865943155171
 30
0.0
 10
150.8505024549742
 20
173.5122023580834
 30
0.0
 10
151.745585336587
 20
173.5122023580834
 30
0.0
 10
151.745585336587
 20
173.5122023580834
 30
0.0
 10
172.5042028040604
 20
173.5122023580834
 30
0.0
 10
172.5042028040604
 20
173.5122023580834
 30
0.0
 10
173.3992856856732
 20
173.5122023580834
 30
0.0
 10
174.1248937282402
 20
172.7865943155171
 30
0.0
 10
174.1248937282402
 20
171.8915114339037
 30
0.0
 10
174.1248937282402
 20
171.8915114339037
 30
0.0
 10
174.1248937282402
 20
171.674534179395
 30
0.0
 10
174.1248937282402
 20
171.674534179395
 30
0.0
 10
174.1248937282402
 20
170.7794512977816
 30
0.0
 10
174.8505017708058
 20
170.0538432552154
 30
0.0
 10
175.7455846524198
 20
170.0538432552154
 30
0.0
 10
175.7455846524198
 20
170.0538432552154
 30
0.0
 10
178.6306161054802
 20
170.0538432552154
 30
0.0
 10
178.6306161054802
 20
170.0538432552154
 30
0.0
 10
179.525698987093
 20
170.0538432552154
 30
0.0
 10
180.2513070296599
 20
170.7794512977816
 30
0.0
 10
180.2513070296599
 20
171.674534179395
 30
0.0
 10
180.2513070296599
 20
171.674534179395
 30
0.0
 10
180.2513070296599
 20
171.8915114339037
 30
0.0
 10
180.2513070296599
 20
171.8915114339037
 30
0.0
 10
180.2513070296599
 20
172.7865943155171
 30
0.0
 10
180.9769150722256
 20
173.5122023580834
 30
0.0
 10
181.8719979538396
 20
173.5122023580834
 30
0.0
 10
181.8719979538396
 20
173.5122023580834
 30
0.0
 10
188.6306301749746
 20
173.5122023580834
 30
0.0
 10
188.6306301749746
 20
173.5122023580834
 30
0.0
 10
189.5257130565873
 20
173.5122023580834
 30
0.0
 10
190.2513210991543
 20
172.7865943155171
 30
0.0
 10
190.2513210991543
 20
171.8915114339037
 30
0.0
 10
190.2513210991543
 20
171.8915114339037
 30
0.0
 10
190.2513210991543
 20
171.674534179395
 30
0.0
 10
190.2513210991543
 20
171.674534179395
 30
0.0
 10
190.2513210991543
 20
170.7794512977816
 30
0.0
 10
190.97692914172
 20
170.0538432552154
 30
0.0
 10
191.872012023334
 20
170.0538432552154
 30
0.0
 10
191.872012023334
 20
170.0538432552154
 30
0.0
 10
194.7570434763944
 20
170.0538432552154
 30
0.0
 10
194.7570434763944
 20
170.0538432552154
 30
0.0
 10
195.6521263580071
 20
170.0538432552154
 30
0.0
 10
196.3777344005741
 20
170.7794512977816
 30
0.0
 10
196.3777344005741
 20
171.674534179395
 30
0.0
 10
196.3777344005741
 20
171.674534179395
 30
0.0
 10
196.3777344005741
 20
171.8915114339037
 30
0.0
 10
196.3777344005741
 20
171.8915114339037
 30
0.0
 10
196.3777344005741
 20
172.7865943155171
 30
0.0
 10
197.1033424431397
 20
173.5122023580834
 30
0.0
 10
197.9984253247538
 20
173.5122023580834
 30
0.0
 10
197.9984253247538
 20
173.5122023580834
 30
0.0
 10
218.757042792226
 20
173.5122023580834
 30
0.0
 10
218.757042792226
 20
173.5122023580834
 30
0.0
 10
219.6521256738388
 20
173.5122023580834
 30
0.0
 10
220.3777337164057
 20
172.7865943155171
 30
0.0
 10
220.3777337164057
 20
171.8915114339037
 30
0.0
 10
220.3777337164057
 20
171.8915114339037
 30
0.0
 10
220.3777337164057
 20
171.674534179395
 30
0.0
 10
220.3777337164057
 20
171.674534179395
 30
0.0
 10
220.3777337164057
 20
170.7794512977816
 30
0.0
 10
221.1033417589713
 20
170.0538432552154
 30
0.0
 10
221.9984246405854
 20
170.0538432552154
 30
0.0
 10
221.9984246405854
 20
170.0538432552154
 30
0.0
 10
224.8834776254926
 20
170.0538432552154
 30
0.0
 10
224.8834776254926
 20
170.0538432552154
 30
0.0
 10
225.7785605071053
 20
170.0538432552154
 30
0.0
 10
226.5041685496723
 20
170.7794512977816
 30
0.0
 10
226.5041685496723
 20
171.674534179395
 30
0.0
 10
226.5041685496723
 20
171.674534179395
 30
0.0
 10
226.5041685496723
 20
171.8915114339037
 30
0.0
 10
226.5041685496723
 20
171.8915114339037
 30
0.0
 10
226.5041685496723
 20
172.7865943155171
 30
0.0
 10
227.2297765922379
 20
173.5122023580834
 30
0.0
 10
228.1248594738519
 20
173.5122023580834
 30
0.0
 10
228.1248594738519
 20
173.5122023580834
 30
0.0
 10
234.8834701631401
 20
173.5122023580834
 30
0.0
 10
234.8834701631401
 20
173.5122023580834
 30
0.0
 10
235.7785530447529
 20
173.5122023580834
 30
0.0
 10
236.5041610873198
 20
172.7865943155171
 30
0.0
 10
236.5041610873198
 20
171.8915114339037
 30
0.0
 10
236.5041610873198
 20
171.8915114339037
 30
0.0
 10
236.5041610873198
 20
171.674534179395
 30
0.0
 10
236.5041610873198
 20
171.674534179395
 30
0.0
 10
236.5041610873198
 20
170.7794512977816
 30
0.0
 10
237.2297691298855
 20
170.0538432552154
 30
0.0
 10
238.1248520114995
 20
170.0538432552154
 30
0.0
 10
238.1248520114995
 20
170.0538432552154
 30
0.0
 10
241.0353771711508
 20
170.0538432552154
 30
0.0
 10
241.0353771711508
 20
170.0538432552154
 30
0.0
 10
241.9304600527635
 20
170.0538432552154
 30
0.0
 10
242.6560680953305
 20
170.7794512977816
 30
0.0
 10
242.6560680953305
 20
171.674534179395
 30
0.0
 10
242.6560680953305
 20
171.674534179395
 30
0.0
 10
242.6560680953305
 20
171.8915114339037
 30
0.0
 10
242.6560680953305
 20
171.8915114339037
 30
0.0
 10
242.6560680953305
 20
172.7865943155171
 30
0.0
 10
243.3816761378961
 20
173.5122023580834
 30
0.0
 10
244.2767590195102
 20
173.5122023580834
 30
0.0
 10
244.2767590195102
 20
173.5122023580834
 30
0.0
 10
254.0777550636692
 20
173.5122023580834
 30
0.0
 10
254.0777550636692
 20
173.5122023580834
 30
0.0
 10
254.972837945282
 20
173.5122023580834
 30
0.0
 10
255.698445987849
 20
172.7865943155171
 30
0.0
 10
255.698445987849
 20
171.8915114339037
 30
0.0
 10
255.698445987849
 20
171.8915114339037
 30
0.0
 10
255.698445987849
 20
171.674534179395
 30
0.0
 10
255.698445987849
 20
171.674534179395
 30
0.0
 10
255.698445987849
 20
170.7794512977816
 30
0.0
 10
256.4240540304146
 20
170.0538432552154
 30
0.0
 10
257.3191369120287
 20
170.0538432552154
 30
0.0
 10
257.3191369120287
 20
170.0538432552154
 30
0.0
 10
260.1927780181409
 20
170.0538432552154
 30
0.0
 10
260.1927780181409
 20
170.0538432552154
 30
0.0
 10
261.0878608997537
 20
170.0538432552154
 30
0.0
 10
261.8134689423206
 20
170.7794512977816
 30
0.0
 10
261.8134689423206
 20
171.674534179395
 30
0.0
 10
261.8134689423206
 20
171.674534179395
 30
0.0
 10
261.8134689423206
 20
173.5122023580834
 30
0.0
 10
261.8134689423206
 20
173.5122023580834
 30
0.0
 10
261.8134689423206
 20
173.5122023580834
 30
0.0
 10
261.8134689423206
 20
176.5367274632871
 30
0.0
 10
261.8134689423206
 20
176.5367274632871
 30
0.0
 10
261.8134689423206
 20
177.4318103449005
 30
0.0
 10
262.5390769848863
 20
178.1574183874668
 30
0.0
 10
263.4341598665003
 20
178.1574183874668
 30
0.0
 10
263.4341598665003
 20
178.1574183874668
 30
0.0
 10
282.7570226073321
 20
178.1574183874668
 30
0.0
 10
282.7570226073321
 20
178.1574183874668
 30
0.0
 10
282.7570226073321
 20
178.1574183874668
 30
0.0
 10
290.6262132386684
 20
178.1574183874668
 30
0.0
 10
290.6262132386684
 20
178.1574183874668
 30
0.0
 10
291.5212961202812
 20
178.1574183874668
 30
0.0
 10
292.2469041628481
 20
178.8830264300331
 30
0.0
 10
292.2469041628481
 20
179.7781093116465
 30
0.0
 10
292.2469041628481
 20
179.7781093116465
 30
0.0
 10
292.2469041628481
 20
182.4794525798028
 30
0.0
 10
292.2469041628481
 20
182.4794525798028
 30
0.0
 10
292.2469041628481
 20
183.3745354614168
 30
0.0
 10
291.5212961202812
 20
184.1001435039824
 30
0.0
 10
290.6262132386684
 20
184.1001435039824
 30
0.0
 10
290.6262132386684
 20
184.1001435039824
 30
0.0
 10
282.7570226073321
 20
184.1001435039824
 30
0.0
 10
282.7570226073321
 20
184.1001435039824
 30
0.0
  0
ENDBLK
  5
8D
330
8A
100
AcDbEntity
  8
0
100
AcDbBlockEnd
  0
ENDSEC
  0
SECTION
  2
ENTITIES
  0
INSERT
  5
7B
330
70
100
AcDbEntity
  8
Calque 4
100
AcDbBlockReference
  2
Block_0
 10
0.0
 20
0.0
 30
0.0
  0
INSERT
  5
8B
330
70
100
AcDbEntity
  8
Calque 4
100
AcDbBlockReference
  2
Block_2
 10
0.0
 20
0.0
 30
0.0
  0
ENDSEC
  0
SECTION
  2
OBJECTS
  0
DICTIONARY
  5
C
330
0
100
AcDbDictionary
281
     1
  3
ACAD_COLOR
350
63
  3
ACAD_DETAILVIEWSTYLE
350
6A
  3
ACAD_GROUP
350
D
  3
ACAD_LAYOUT
350
62
  3
ACAD_MATERIAL
350
10
  3
ACAD_MLEADERSTYLE
350
66
  3
ACAD_MLINESTYLE
350
5F
  3
ACAD_PLOTSETTINGS
350
61
  3
ACAD_PLOTSTYLENAME
350
E
  3
ACAD_SCALELIST
350
42
  3
ACAD_SECTIONVIEWSTYLE
350
68
  3
ACAD_TABLESTYLE
350
64
  3
ACAD_VISUALSTYLE
350
29
  3
ACDB_RECOMPOSE_DATA
350
9F
  3
AcDbVariableDictionary
350
97
  0
DICTIONARY
  5
63
102
{ACAD_REACTORS
330
C
102
}
330
C
100
AcDbDictionary
281
     1
  0
DICTIONARY
  5
6A
102
{ACAD_REACTORS
330
C
102
}
330
C
100
AcDbDictionary
281
     1
  3
Imperial24
350
6B
  0
DICTIONARY
  5
D
102
{ACAD_REACTORS
330
C
102
}
330
C
100
AcDbDictionary
281
     1
  0
DICTIONARY
  5
62
102
{ACAD_REACTORS
330
C
102
}
330
C
100
AcDbDictionary
281
     1
  3
Layout1
350
6F
  3
Layout2
350
77
  3
Model
350
73
  0
DICTIONARY
  5
10
102
{ACAD_REACTORS
330
C
102
}
330
C
100
AcDbDictionary
281
     1
  3
ByBlock
350
19
  3
ByLayer
350
11
  3
Global
350
21
  0
DICTIONARY
  5
66
102
{ACAD_REACTORS
330
C
102
}
330
C
100
AcDbDictionary
281
     1
  3
Standard
350
67
  0
DICTIONARY
  5
5F
102
{ACAD_REACTORS
330
C
102
}
330
C
100
AcDbDictionary
281
     1
  3
Standard
350
60
  0
DICTIONARY
  5
61
102
{ACAD_REACTORS
330
C
102
}
330
C
100
AcDbDictionary
281
     1
  0
ACDBDICTIONARYWDFLT
  5
E
102
{ACAD_REACTORS
330
C
102
}
330
C
100
AcDbDictionary
281
     1
  3
Normal
350
F
100
AcDbDictionaryWithDefault
340
F
  0
DICTIONARY
  5
42
102
{ACAD_REACTORS
330
C
102
}
330
C
100
AcDbDictionary
281
     1
  3
A0
350
43
  3
A1
350
44
  3
A2
350
45
  3
A3
350
46
  3
A4
350
47
  3
A5
350
48
  3
A6
350
49
  3
A7
350
4A
  3
A8
350
4B
  3
A9
350
4C
  3
B0
350
4D
  3
B1
350
4E
  3
B2
350
4F
  3
B3
350
50
  3
B4
350
51
  3
B5
350
52
  3
B6
350
53
  0
DICTIONARY
  5
68
102
{ACAD_REACTORS
330
C
102
}
330
C
100
AcDbDictionary
281
     1
  3
Imperial24
350
69
  0
DICTIONARY
  5
64
102
{ACAD_REACTORS
330
C
102
}
330
C
100
AcDbDictionary
281
     1
  3
Standard
350
65
  0
DICTIONARY
  5
29
102
{ACAD_REACTORS
330
C
102
}
330
C
100
AcDbDictionary
281
     1
  3
2dWireframe
350
2F
  3
Basic
350
2E
  3
Brighten
350
35
  3
ColorChange
350
39
  3
Conceptual
350
32
  3
Dim
350
34
  3
EdgeColorOff
350
41
  3
Facepattern
350
38
  3
Flat
350
2A
  3
FlatWithEdges
350
2B
  3
Gouraud
350
2C
  3
GouraudWithEdges
350
2D
  3
Hidden
350
31
  3
JitterOff
350
3F
  3
Linepattern
350
37
  3
OverhangOff
350
40
  3
Realistic
350
33
  3
Shaded
350
3E
  3
Shaded with edges
350
3D
  3
Shades of Gray
350
3A
  3
Sketchy
350
3B
  3
Thicken
350
36
  3
Wireframe
350
30
  3
X-Ray
350
3C
  0
XRECORD
  5
9F
102
{ACAD_REACTORS
330
C
102
}
330
C
100
AcDbXrecord
280
     1
 90
        1
330
65
  0
DICTIONARY
  5
97
102
{ACAD_REACTORS
330
C
102
}
330
C
100
AcDbDictionary
281
     1
  3
CANNOSCALE
350
9C
  3
CMLEADERSTYLE
350
99
  3
CTABLESTYLE
350
98
  3
CVIEWDETAILSTYLE
350
9A
  3
CVIEWSECTIONSTYLE
350
9B
  0
ACDBDETAILVIEWSTYLE
  5
6B
102
{ACAD_REACTORS
330
6A
102
}
330
6A
100
AcDbModelDocViewStyle
 70
     0
  3
Imperial24
290
     1
300
Imperial24
 90
        0
100
AcDbDetailViewStyle
 70
     0
 71
     0
 90
        3
 71
     1
340
55
 62
   256
 40
0.24
340
0
 62
   256
 40
0.24
300

 40
0.36
280
     3
 71
     2
340
5D
 90
       25
 62
   256
 71
     3
340
55
 62
   256
 40
0.24
 90
        1
 40
0.75
 90
        1
300
%<\AcVar ViewType \f "%tc1">% %<\AcVar ViewDetailId>%\PSCALE %<\AcVar ViewScale \f "%sn">%
 71
     4
340
5D
 90
       25
 62
   256
340
5D
 90
       25
 62
   256
280
     0
  0
LAYOUT
  5
6F
102
{ACAD_REACTORS
330
62
102
}
330
62
100
AcDbPlotSettings
  1

  2

  4

  6

 40
0.0
 41
0.0
 42
0.0
 43
0.0
 44
0.0
 45
0.0
 46
0.0
 47
0.0
 48
0.0
 49
0.0
140
0.0
141
0.0
142
1.0
143
1.0
 70
   688
 72
     0
 73
     0
 74
     5
  7

 75
    16
147
1.0
 76
     0
 77
     2
 78
   300
148
0.0
149
0.0
100
AcDbLayout
  1
Layout1
 70
     1
 71
     1
 10
0.0
 20
0.0
 11
12.0
 21
9.0
 12
0.0
 22
0.0
 32
0.0
 14
0.0
 24
0.0
 34
0.0
 15
0.0
 25
0.0
 35
0.0
146
0.0
 13
0.0
 23
0.0
 33
0.0
 16
1.0
 26
0.0
 36
0.0
 17
0.0
 27
1.0
 37
0.0
 76
     0
330
6C
  0
LAYOUT
  5
77
102
{ACAD_REACTORS
330
62
102
}
330
62
100
AcDbPlotSettings
  1

  2

  4

  6

 40
0.0
 41
0.0
 42
0.0
 43
0.0
 44
0.0
 45
0.0
 46
0.0
 47
0.0
 48
0.0
 49
0.0
140
0.0
141
0.0
142
1.0
143
1.0
 70
   688
 72
     0
 73
     0
 74
     5
  7

 75
    16
147
1.0
 76
     0
 77
     2
 78
   300
148
0.0
149
0.0
100
AcDbLayout
  1
Layout2
 70
     1
 71
     2
 10
0.0
 20
0.0
 11
12.0
 21
9.0
 12
0.0
 22
0.0
 32
0.0
 14
0.0
 24
0.0
 34
0.0
 15
0.0
 25
0.0
 35
0.0
146
0.0
 13
0.0
 23
0.0
 33
0.0
 16
1.0
 26
0.0
 36
0.0
 17
0.0
 27
1.0
 37
0.0
 76
     0
330
74
  0
LAYOUT
  5
73
102
{ACAD_REACTORS
330
62
102
}
330
62
100
AcDbPlotSettings
  1

  2

  4

  6

 40
0.0
 41
0.0
 42
0.0
 43
0.0
 44
0.0
 45
0.0
 46
0.0
 47
0.0
 48
0.0
 49
0.0
140
0.0
141
0.0
142
1.0
143
1.0
 70
  1712
 72
     0
 73
     0
 74
     0
  7

 75
     0
147
1.0
 76
     0
 77
     2
 78
   300
148
0.0
149
0.0
100
AcDbLayout
  1
Model
 70
     1
 71
     0
 10
0.0
 20
0.0
 11
12.0
 21
9.0
 12
0.0
 22
0.0
 32
0.0
 14
0.0
 24
0.0
 34
0.0
 15
0.0
 25
0.0
 35
0.0
146
0.0
 13
0.0
 23
0.0
 33
0.0
 16
1.0
 26
0.0
 36
0.0
 17
0.0
 27
1.0
 37
0.0
 76
     0
330
70
  0
MATERIAL
  5
19
102
{ACAD_XDICTIONARY
360
1A
102
}
102
{ACAD_REACTORS
330
10
102
}
330
10
100
AcDbMaterial
  1
ByBlock
 72
     0
 43
0.0208333333333333
 43
0.0
 43
0.0
 43
0.0
 43
0.0
 43
0.0208333333333333
 43
0.0
 43
0.0
 43
0.0
 43
0.0
 43
1.0
 43
0.0
 43
0.0
 43
0.0
 43
0.0
 43
1.0
 77
     0
 47
0.0208333333333333
 47
0.0
 47
0.0
 47
0.0
 47
0.0
 47
0.0208333333333333
 47
0.0
 47
0.0
 47
0.0
 47
0.0
 47
1.0
 47
0.0
 47
0.0
 47
0.0
 47
0.0
 47
1.0
171
     0
 49
0.0208333333333333
 49
0.0
 49
0.0
 49
0.0
 49
0.0
 49
0.0208333333333333
 49
0.0
 49
0.0
 49
0.0
 49
0.0
 49
1.0
 49
0.0
 49
0.0
 49
0.0
 49
0.0
 49
1.0
175
     0
142
0.0208333333333333
142
0.0
142
0.0
142
0.0
142
0.0
142
0.0208333333333333
142
0.0
142
0.0
142
0.0
142
0.0
142
1.0
142
0.0
142
0.0
142
0.0
142
0.0
142
1.0
179
     0
144
0.0208333333333333
144
0.0
144
0.0
144
0.0
144
0.0
144
0.0208333333333333
144
0.0
144
0.0
144
0.0
144
0.0
144
1.0
144
0.0
144
0.0
144
0.0
144
0.0
144
1.0
147
0.0208333333333333
147
0.0
147
0.0
147
0.0
147
0.0
147
0.0208333333333333
147
0.0
147
0.0
147
0.0
147
0.0
147
1.0
147
0.0
147
0.0
147
0.0
147
0.0
147
1.0
  0
MATERIAL
  5
11
102
{ACAD_XDICTIONARY
360
12
102
}
102
{ACAD_REACTORS
330
10
102
}
330
10
100
AcDbMaterial
  1
ByLayer
 72
     0
 43
0.0208333333333333
 43
0.0
 43
0.0
 43
0.0
 43
0.0
 43
0.0208333333333333
 43
0.0
 43
0.0
 43
0.0
 43
0.0
 43
1.0
 43
0.0
 43
0.0
 43
0.0
 43
0.0
 43
1.0
 77
     0
 47
0.0208333333333333
 47
0.0
 47
0.0
 47
0.0
 47
0.0
 47
0.0208333333333333
 47
0.0
 47
0.0
 47
0.0
 47
0.0
 47
1.0
 47
0.0
 47
0.0
 47
0.0
 47
0.0
 47
1.0
171
     0
 49
0.0208333333333333
 49
0.0
 49
0.0
 49
0.0
 49
0.0
 49
0.0208333333333333
 49
0.0
 49
0.0
 49
0.0
 49
0.0
 49
1.0
 49
0.0
 49
0.0
 49
0.0
 49
0.0
 49
1.0
175
     0
142
0.0208333333333333
142
0.0
142
0.0
142
0.0
142
0.0
142
0.0208333333333333
142
0.0
142
0.0
142
0.0
142
0.0
142
1.0
142
0.0
142
0.0
142
0.0
142
0.0
142
1.0
179
     0
144
0.0208333333333333
144
0.0
144
0.0
144
0.0
144
0.0
144
0.0208333333333333
144
0.0
144
0.0
144
0.0
144
0.0
144
1.0
144
0.0
144
0.0
144
0.0
144
0.0
144
1.0
147
0.0208333333333333
147
0.0
147
0.0
147
0.0
147
0.0
147
0.0208333333333333
147
0.0
147
0.0
147
0.0
147
0.0
147
1.0
147
0.0
147
0.0
147
0.0
147
0.0
147
1.0
  0
MATERIAL
  5
21
102
{ACAD_XDICTIONARY
360
22
102
}
102
{ACAD_REACTORS
330
10
102
}
330
10
100
AcDbMaterial
  1
Global
 72
     0
 43
0.0208333333333333
 43
0.0
 43
0.0
 43
0.0
 43
0.0
 43
0.0208333333333333
 43
0.0
 43
0.0
 43
0.0
 43
0.0
 43
1.0
 43
0.0
 43
0.0
 43
0.0
 43
0.0
 43
1.0
 77
     0
 47
0.0208333333333333
 47
0.0
 47
0.0
 47
0.0
 47
0.0
 47
0.0208333333333333
 47
0.0
 47
0.0
 47
0.0
 47
0.0
 47
1.0
 47
0.0
 47
0.0
 47
0.0
 47
0.0
 47
1.0
171
     0
 49
0.0208333333333333
 49
0.0
 49
0.0
 49
0.0
 49
0.0
 49
0.0208333333333333
 49
0.0
 49
0.0
 49
0.0
 49
0.0
 49
1.0
 49
0.0
 49
0.0
 49
0.0
 49
0.0
 49
1.0
175
     0
142
0.0208333333333333
142
0.0
142
0.0
142
0.0
142
0.0
142
0.0208333333333333
142
0.0
142
0.0
142
0.0
142
0.0
142
1.0
142
0.0
142
0.0
142
0.0
142
0.0
142
1.0
179
     0
144
0.0208333333333333
144
0.0
144
0.0
144
0.0
144
0.0
144
0.0208333333333333
144
0.0
144
0.0
144
0.0
144
0.0
144
1.0
144
0.0
144
0.0
144
0.0
144
0.0
144
1.0
147
0.0208333333333333
147
0.0
147
0.0
147
0.0
147
0.0
147
0.0208333333333333
147
0.0
147
0.0
147
0.0
147
0.0
147
1.0
147
0.0
147
0.0
147
0.0
147
0.0
147
1.0
  0
MLEADERSTYLE
  5
67
102
{ACAD_REACTORS
330
66
102
}
330
66
100
AcDbMLeaderStyle
179
     2
170
     2
171
     1
172
     0
 90
        2
 40
0.0
 41
0.0
173
     1
 91
-1056964608
340
5B
 92
       -2
290
     1
 42
0.09
291
     1
 43
0.36
  3
Standard
 44
0.18
300

342
55
174
     1
178
     6
175
     1
176
     0
 93
-1056964608
 45
0.18
292
     0
297
     0
 46
0.18
 94
-1056964608
 47
1.0
 49
1.0
140
1.0
293
     1
141
0.0
294
     1
177
     0
142
1.0
295
     1
296
     0
143
0.125
271
     0
272
     9
273
     9
298
     1
  0
MLINESTYLE
  5
60
102
{ACAD_REACTORS
330
5F
102
}
330
5F
100
AcDbMlineStyle
  2
STANDARD
 70
     0
  3

 62
   256
 51
90.0
 52
90.0
 71
     2
 49
0.5
 62
   256
  6
BYLAYER
 49
-0.5
 62
   256
  6
BYLAYER
  0
ACDBPLACEHOLDER
  5
F
102
{ACAD_REACTORS
330
E
102
}
330
E
  0
SCALE
  5
43
102
{ACAD_REACTORS
330
42
102
}
330
42
100
AcDbScale
 70
     0
300
1:1
140
1.0
141
1.0
290
     1
  0
SCALE
  5
44
102
{ACAD_REACTORS
330
42
102
}
330
42
100
AcDbScale
 70
     0
300
1/128" = 1'-0"
140
0.0078125
141
12.0
290
     0
  0
SCALE
  5
45
102
{ACAD_REACTORS
330
42
102
}
330
42
100
AcDbScale
 70
     0
300
1/64" = 1'-0"
140
0.015625
141
12.0
290
     0
  0
SCALE
  5
46
102
{ACAD_REACTORS
330
42
102
}
330
42
100
AcDbScale
 70
     0
300
1/32" = 1'-0"
140
0.03125
141
12.0
290
     0
  0
SCALE
  5
47
102
{ACAD_REACTORS
330
42
102
}
330
42
100
AcDbScale
 70
     0
300
1/16" = 1'-0"
140
0.0625
141
12.0
290
     0
  0
SCALE
  5
48
102
{ACAD_REACTORS
330
42
102
}
330
42
100
AcDbScale
 70
     0
300
3/32" = 1'-0"
140
0.09375
141
12.0
290
     0
  0
SCALE
  5
49
102
{ACAD_REACTORS
330
42
102
}
330
42
100
AcDbScale
 70
     0
300
1/8" = 1'-0"
140
0.125
141
12.0
290
     0
  0
SCALE
  5
4A
102
{ACAD_REACTORS
330
42
102
}
330
42
100
AcDbScale
 70
     0
300
3/16" = 1'-0"
140
0.1875
141
12.0
290
     0
  0
SCALE
  5
4B
102
{ACAD_REACTORS
330
42
102
}
330
42
100
AcDbScale
 70
     0
300
1/4" = 1'-0"
140
0.25
141
12.0
290
     0
  0
SCALE
  5
4C
102
{ACAD_REACTORS
330
42
102
}
330
42
100
AcDbScale
 70
     0
300
3/8" = 1'-0"
140
0.375
141
12.0
290
     0
  0
SCALE
  5
4D
102
{ACAD_REACTORS
330
42
102
}
330
42
100
AcDbScale
 70
     0
300
1/2" = 1'-0"
140
0.5
141
12.0
290
     0
  0
SCALE
  5
4E
102
{ACAD_REACTORS
330
42
102
}
330
42
100
AcDbScale
 70
     0
300
3/4" = 1'-0"
140
0.75
141
12.0
290
     0
  0
SCALE
  5
4F
102
{ACAD_REACTORS
330
42
102
}
330
42
100
AcDbScale
 70
     0
300
1" = 1'-0"
140
1.0
141
12.0
290
     0
  0
SCALE
  5
50
102
{ACAD_REACTORS
330
42
102
}
330
42
100
AcDbScale
 70
     0
300
1-1/2" = 1'-0"
140
1.5
141
12.0
290
     0
  0
SCALE
  5
51
102
{ACAD_REACTORS
330
42
102
}
330
42
100
AcDbScale
 70
     0
300
3" = 1'-0"
140
3.0
141
12.0
290
     0
  0
SCALE
  5
52
102
{ACAD_REACTORS
330
42
102
}
330
42
100
AcDbScale
 70
     0
300
6" = 1'-0"
140
6.0
141
12.0
290
     0
  0
SCALE
  5
53
102
{ACAD_REACTORS
330
42
102
}
330
42
100
AcDbScale
 70
     0
300
1'-0" = 1'-0"
140
12.0
141
12.0
290
     0
  0
ACDBSECTIONVIEWSTYLE
  5
69
102
{ACAD_REACTORS
330
68
102
}
330
68
100
AcDbModelDocViewStyle
 70
     0
  3
Imperial24
290
     1
300
Imperial24
 90
        0
100
AcDbSectionViewStyle
 70
     0
 71
     0
 90
       78
 71
     1
340
55
 62
   256
 40
0.24
340
0
340
0
 62
   256
 40
0.24
300
I, O, Q, S, X, Z
 40
0.48
 90
        3
 40
0.18
 90
        1
 71
     2
340
5D
 90
       25
 62
   256
340
5D
 90
       50
 62
   256
 40
0.24
 40
0.0
 40
0.24
 71
     3
340
55
 62
   256
 40
0.24
 90
        1
 40
0.75
 90
        1
300
%<\AcVar ViewType \f "%tc1">% %<\AcVar ViewSectionStartId>%-%<\AcVar ViewSectionEndId>%\PSCALE %<\AcVar ViewScale \f "%sn">%
 71
     4
 62
   256
 62
   257
300
ANSI31
 40
1.0
 90
        0
290
     0
290
     0
 90
        6
 40
0.0
 40
1.570796326794896
 40
0.2617993877991494
 40
1.308996938995747
 40
-0.2617993877991494
 40
1.832595714594046
  0
TABLESTYLE
  5
65
102
{ACAD_XDICTIONARY
360
9D
102
}
102
{ACAD_REACTORS
330
64
102
}
330
64
100
AcDbTableStyle
280
     0
  3
Standard
 70
     0
 71
     0
 40
0.06
 41
0.06
280
     0
281
     0
  7
Standard
140
0.18
170
     2
 62
     0
 63
     7
283
     0
 90
      512
 91
        0
  1

274
    -2
284
     1
 64
     0
275
    -2
285
     1
 65
     0
276
    -2
286
     1
 66
     0
277
    -2
287
     1
 67
     0
278
    -2
288
     1
 68
     0
279
    -2
289
     1
 69
     0
  7
Standard
140
0.25
170
     5
 62
     0
 63
     7
283
     0
 90
      512
 91
        0
  1

274
    -2
284
     1
 64
     0
275
    -2
285
     1
 65
     0
276
    -2
286
     1
 66
     0
277
    -2
287
     1
 67
     0
278
    -2
288
     1
 68
     0
279
    -2
289
     1
 69
     0
  7
Standard
140
0.18
170
     5
 62
     0
 63
     7
283
     0
 90
      512
 91
        0
  1

274
    -2
284
     1
 64
     0
275
    -2
285
     1
 65
     0
276
    -2
286
     1
 66
     0
277
    -2
287
     1
 67
     0
278
    -2
288
     1
 68
     0
279
    -2
289
     1
 69
     0
  0
VISUALSTYLE
  5
2F
102
{ACAD_REACTORS
330
29
102
}
330
29
100
AcDbVisualStyle
  2
2dWireframe
 70
     4
177
     3
291
     0
 70
    58
 90
        0
176
     1
 90
        2
176
     1
 90
        0
176
     1
 90
        0
176
     1
 40
0.6
176
     1
 40
30.0
176
     1
 62
     7
420
 16777215
176
     1
 90
        1
176
     1
 90
        4
176
     1
 62
     7
176
     1
 62
   257
176
     1
 90
        1
176
     1
 90
        1
176
     1
 40
1.0
176
     1
 90
        0
176
     1
 62
   257
176
     1
 40
1.0
176
     1
 90
        1
176
     1
 90
        6
176
     1
 90
        2
176
     1
 62
     7
176
     1
 90
        5
176
     1
 90
        0
176
     1
 90
        0
176
     1
290
     0
176
     1
 90
        1
176
     1
 40
0.0
176
     1
 90
        0
176
     1
290
     1
176
     1
290
     1
176
     1
290
     0
176
     1
290
     0
176
     1
290
     0
176
     1
290
     0
176
     1
290
     0
176
     1
290
     0
176
     1
290
     0
176
     1
 90
       50
176
     1
 40
0.0
176
     1
 40
1.0
176
     1
 90
        0
176
     1
 62
    18
420
        0
176
     1
 90
       50
176
     1
 90
        3
176
     1
 62
     5
420
      255
176
     1
290
     0
176
     1
 90
       50
176
     1
 90
       50
176
     1
 90
       50
176
     1
290
     0
176
     1
 90
       50
176
     1
 62
   256
176
     0
 40
1.0
176
     0
 90
        2
176
     1
  1
strokes_ogs.tif
176
     1
290
     0
176
     1
 40
1.0
176
     1
 40
1.0
176
     1
  0
VISUALSTYLE
  5
2E
102
{ACAD_REACTORS
330
29
102
}
330
29
100
AcDbVisualStyle
  2
Basic
 70
     7
177
     3
291
     1
 70
    58
 90
        1
176
     1
 90
        0
176
     1
 90
        1
176
     1
 90
        0
176
     1
 40
0.6
176
     1
 40
30.0
176
     1
 62
     7
420
 16777215
176
     1
 90
        0
176
     1
 90
        4
176
     1
 62
     7
176
     1
 62
   257
176
     1
 90
        1
176
     1
 90
        1
176
     1
 40
1.0
176
     1
 90
        8
176
     1
 62
     7
176
     1
 40
1.0
176
     1
 90
        1
176
     1
 90
        6
176
     1
 90
        2
176
     1
 62
     7
176
     1
 90
        5
176
     1
 90
        0
176
     1
 90
        0
176
     1
290
     0
176
     1
 90
        1
176
     1
 40
0.0
176
     1
 90
        0
176
     1
290
     0
176
     1
290
     1
176
     1
290
     1
176
     1
290
     0
176
     1
290
     0
176
     1
290
     0
176
     1
290
     0
176
     1
290
     0
176
     1
290
     0
176
     1
 90
       50
176
     1
 40
0.0
176
     1
 40
1.0
176
     1
 90
        0
176
     1
 62
    18
420
        0
176
     1
 90
       50
176
     1
 90
        3
176
     1
 62
     5
420
      255
176
     1
290
     0
176
     1
 90
       50
176
     1
 90
       50
176
     1
 90
       50
176
     1
290
     0
176
     1
 90
       50
176
     1
 62
   256
176
     0
 40
1.0
176
     0
 90
        2
176
     1
  1
strokes_ogs.tif
176
     1
290
     0
176
     1
 40
1.0
176
     1
 40
1.0
176
     1
  0
VISUALSTYLE
  5
35
102
{ACAD_REACTORS
330
29
102
}
330
29
100
AcDbVisualStyle
  2
Brighten
 70
    12
177
     3
291
     1
 70
    58
 90
        2
176
     1
 90
        2
176
     1
 90
        0
176
     1
 90
        0
176
     1
 40
0.6
176
     1
 40
30.0
176
     1
 62
     7
420
 16777215
176
     1
 90
        1
176
     1
 90
        4
176
     1
 62
     7
176
     1
 62
   257
176
     1
 90
        1
176
     1
 90
        1
176
     1
 40
1.0
176
     1
 90
        8
176
     1
 62
     7
176
     1
 40
1.0
176
     1
 90
        1
176
     1
 90
        6
176
     1
 90
        2
176
     1
 62
     7
176
     1
 90
        5
176
     1
 90
        0
176
     1
 90
        0
176
     1
290
     0
176
     1
 90
        1
176
     1
 40
50.0
176
     1
 90
        0
176
     1
290
     0
176
     1
290
     1
176
     1
290
     1
176
     1
290
     0
176
     1
290
     0
176
     1
290
     0
176
     1
290
     0
176
     1
290
     0
176
     1
290
     0
176
     1
 90
       50
176
     1
 40
0.0
176
     1
 40
1.0
176
     1
 90
        0
176
     1
 62
    18
420
        0
176
     1
 90
       50
176
     1
 90
        3
176
     1
 62
     5
420
      255
176
     1
290
     0
176
     1
 90
       50
176
     1
 90
       50
176
     1
 90
       50
176
     1
290
     0
176
     1
 90
       50
176
     1
 62
   256
176
     0
 40
1.0
176
     0
 90
        2
176
     1
  1
strokes_ogs.tif
176
     1
290
     0
176
     1
 40
1.0
176
     1
 40
1.0
176
     1
  0
VISUALSTYLE
  5
39
102
{ACAD_REACTORS
330
29
102
}
330
29
100
AcDbVisualStyle
  2
ColorChange
 70
    16
177
     3
291
     1
 70
    58
 90
        2
176
     1
 90
        2
176
     1
 90
        3
176
     1
 90
        0
176
     1
 40
0.6
176
     1
 40
30.0
176
     1
 62
     8
420
  8421504
176
     1
 90
        1
176
     1
 90
        4
176
     1
 62
     7
176
     1
 62
   257
176
     1
 90
        1
176
     1
 90
        1
176
     1
 40
1.0
176
     1
 90
        8
176
     1
 62
     8
420
  8421504
176
     1
 40
1.0
176
     1
 90
        1
176
     1
 90
        6
176
     1
 90
        2
176
     1
 62
     7
176
     1
 90
        5
176
     1
 90
        0
176
     1
 90
        0
176
     1
290
     0
176
     1
 90
        1
176
     1
 40
0.0
176
     1
 90
        0
176
     1
290
     0
176
     1
290
     1
176
     1
290
     1
176
     1
290
     0
176
     1
290
     0
176
     1
290
     0
176
     1
290
     0
176
     1
290
     0
176
     1
290
     0
176
     1
 90
       50
176
     1
 40
0.0
176
     1
 40
1.0
176
     1
 90
        0
176
     1
 62
    18
420
        0
176
     1
 90
       50
176
     1
 90
        3
176
     1
 62
     5
420
      255
176
     1
290
     0
176
     1
 90
       50
176
     1
 90
       50
176
     1
 90
       50
176
     1
290
     0
176
     1
 90
       50
176
     1
 62
   256
176
     0
 40
1.0
176
     0
 90
        2
176
     1
  1
strokes_ogs.tif
176
     1
290
     0
176
     1
 40
1.0
176
     1
 40
1.0
176
     1
  0
VISUALSTYLE
  5
32
102
{ACAD_REACTORS
330
29
102
}
330
29
100
AcDbVisualStyle
  2
Conceptual
 70
     9
177
     3
291
     0
 70
    58
 90
        3
176
     1
 90
        2
176
     1
 90
        0
176
     1
 90
        0
176
     1
 40
0.6
176
     1
 40
30.0
176
     1
 62
     7
420
 16777215
176
     1
 90
        2
176
     1
 90
        2
176
     1
 62
     7
176
     1
 62
   257
176
     1
 90
        1
176
     1
 90
        1
176
     1
 40
179.0
176
     1
 90
        8
176
     1
 62
     7
176
     1
 40
1.0
176
     1
 90
        1
176
     1
 90
        6
176
     1
 90
        2
176
     1
 62
     7
176
     1
 90
        3
176
     1
 90
        0
176
     1
 90
        0
176
     1
290
     0
176
     1
 90
        1
176
     1
 40
0.0
176
     1
 90
        0
176
     1
290
     0
176
     1
290
     1
176
     1
290
     1
176
     1
290
     0
176
     1
290
     0
176
     1
290
     0
176
     1
290
     0
176
     1
290
     0
176
     1
290
     0
176
     1
 90
       50
176
     1
 40
0.0
176
     1
 40
1.0
176
     1
 90
        0
176
     1
 62
    18
420
        0
176
     1
 90
       50
176
     1
 90
        3
176
     1
 62
     5
420
      255
176
     1
290
     0
176
     1
 90
       50
176
     1
 90
       50
176
     1
 90
       50
176
     1
290
     0
176
     1
 90
       50
176
     1
 62
   256
176
     0
 40
1.0
176
     0
 90
        2
176
     1
  1
strokes_ogs.tif
176
     1
290
     0
176
     1
 40
1.0
176
     1
 40
1.0
176
     1
  0
VISUALSTYLE
  5
34
102
{ACAD_REACTORS
330
29
102
}
330
29
100
AcDbVisualStyle
  2
Dim
 70
    11
177
     3
291
     1
 70
    58
 90
        2
176
     1
 90
        2
176
     1
 90
        0
176
     1
 90
        0
176
     1
 40
0.6
176
     1
 40
30.0
176
     1
 62
     7
420
 16777215
176
     1
 90
        1
176
     1
 90
        4
176
     1
 62
     7
176
     1
 62
   257
176
     1
 90
        1
176
     1
 90
        1
176
     1
 40
1.0
176
     1
 90
        8
176
     1
 62
     7
176
     1
 40
1.0
176
     1
 90
        1
176
     1
 90
        6
176
     1
 90
        2
176
     1
 62
     7
176
     1
 90
        5
176
     1
 90
        0
176
     1
 90
        0
176
     1
290
     0
176
     1
 90
        1
176
     1
 40
-50.0
176
     1
 90
        0
176
     1
290
     0
176
     1
290
     1
176
     1
290
     1
176
     1
290
     0
176
     1
290
     0
176
     1
290
     0
176
     1
290
     0
176
     1
290
     0
176
     1
290
     0
176
     1
 90
       50
176
     1
 40
0.0
176
     1
 40
1.0
176
     1
 90
        0
176
     1
 62
    18
420
        0
176
     1
 90
       50
176
     1
 90
        3
176
     1
 62
     5
420
      255
176
     1
290
     0
176
     1
 90
       50
176
     1
 90
       50
176
     1
 90
       50
176
     1
290
     0
176
     1
 90
       50
176
     1
 62
   256
176
     0
 40
1.0
176
     0
 90
        2
176
     1
  1
strokes_ogs.tif
176
     1
290
     0
176
     1
 40
1.0
176
     1
 40
1.0
176
     1
  0
VISUALSTYLE
  5
41
102
{ACAD_REACTORS
330
29
102
}
330
29
100
AcDbVisualStyle
  2
EdgeColorOff
 70
    22
177
     3
291
     1
 70
    58
 90
        2
176
     0
 90
        2
176
     0
 90
        0
176
     0
 90
        0
176
     0
 40
0.6
176
     0
 40
30.0
176
     0
 62
     7
420
 16777215
176
     0
 90
        1
176
     0
 90
        4
176
     0
 62
     7
176
     0
 62
   257
176
     0
 90
        1
176
     0
 90
        1
176
     0
 40
1.0
176
     0
 90
        8
176
     2
 62
     7
176
     0
 40
1.0
176
     0
 90
        1
176
     0
 90
        6
176
     0
 90
        2
176
     0
 62
     7
176
     0
 90
        5
176
     0
 90
        0
176
     0
 90
        0
176
     0
290
     0
176
     0
 90
        1
176
     0
 40
0.0
176
     0
 90
        0
176
     0
290
     0
176
     0
290
     1
176
     0
290
     1
176
     0
290
     0
176
     0
290
     0
176
     0
290
     0
176
     0
290
     0
176
     0
290
     0
176
     0
290
     0
176
     0
 90
       50
176
     0
 40
0.0
176
     0
 40
1.0
176
     0
 90
        0
176
     0
 62
    18
420
        0
176
     0
 90
       50
176
     0
 90
        3
176
     0
 62
     5
420
      255
176
     0
290
     0
176
     0
 90
       50
176
     0
 90
       50
176
     0
 90
       50
176
     0
290
     0
176
     0
 90
       50
176
     0
 62
   256
176
     0
 40
1.0
176
     0
 90
        2
176
     0
  1
strokes_ogs.tif
176
     0
290
     0
176
     0
 40
1.0
176
     0
 40
1.0
176
     0
  0
VISUALSTYLE
  5
38
102
{ACAD_REACTORS
330
29
102
}
330
29
100
AcDbVisualStyle
  2
Facepattern
 70
    15
177
     3
291
     1
 70
    58
 90
        2
176
     1
 90
        2
176
     1
 90
        0
176
     1
 90
        0
176
     1
 40
0.6
176
     1
 40
30.0
176
     1
 62
     7
420
 16777215
176
     1
 90
        1
176
     1
 90
        4
176
     1
 62
     7
176
     1
 62
   257
176
     1
 90
        1
176
     1
 90
        1
176
     1
 40
1.0
176
     1
 90
        8
176
     1
 62
     7
176
     1
 40
1.0
176
     1
 90
        1
176
     1
 90
        6
176
     1
 90
        2
176
     1
 62
     7
176
     1
 90
        5
176
     1
 90
        0
176
     1
 90
        0
176
     1
290
     0
176
     1
 90
        1
176
     1
 40
0.0
176
     1
 90
        0
176
     1
290
     0
176
     1
290
     1
176
     1
290
     1
176
     1
290
     0
176
     1
290
     0
176
     1
290
     0
176
     1
290
     0
176
     1
290
     0
176
     1
290
     0
176
     1
 90
       50
176
     1
 40
0.0
176
     1
 40
1.0
176
     1
 90
        0
176
     1
 62
    18
420
        0
176
     1
 90
       50
176
     1
 90
        3
176
     1
 62
     5
420
      255
176
     1
290
     0
176
     1
 90
       50
176
     1
 90
       50
176
     1
 90
       50
176
     1
290
     0
176
     1
 90
       50
176
     1
 62
   256
176
     0
 40
1.0
176
     0
 90
        2
176
     1
  1
strokes_ogs.tif
176
     1
290
     0
176
     1
 40
1.0
176
     1
 40
1.0
176
     1
  0
VISUALSTYLE
  5
2A
102
{ACAD_REACTORS
330
29
102
}
330
29
100
AcDbVisualStyle
  2
Flat
 70
     0
177
     3
291
     1
 70
    58
 90
        2
176
     1
 90
        1
176
     1
 90
        1
176
     1
 90
        2
176
     1
 40
0.6
176
     1
 40
30.0
176
     1
 62
     7
420
 16777215
176
     1
 90
        0
176
     1
 90
        0
176
     1
 62
     7
176
     1
 62
   257
176
     1
 90
        1
176
     1
 90
        1
176
     1
 40
1.0
176
     1
 90
        8
176
     1
 62
     7
176
     1
 40
1.0
176
     1
 90
        1
176
     1
 90
        6
176
     1
 90
        2
176
     1
 62
     7
176
     1
 90
        5
176
     1
 90
        0
176
     1
 90
        0
176
     1
290
     0
176
     1
 90
       13
176
     1
 40
0.0
176
     1
 90
        0
176
     1
290
     0
176
     1
290
     1
176
     1
290
     1
176
     1
290
     0
176
     1
290
     0
176
     1
290
     0
176
     1
290
     0
176
     1
290
     0
176
     1
290
     0
176
     1
 90
       50
176
     1
 40
0.0
176
     1
 40
1.0
176
     1
 90
        0
176
     1
 62
    18
420
        0
176
     1
 90
       50
176
     1
 90
        3
176
     1
 62
     5
420
      255
176
     1
290
     0
176
     1
 90
       50
176
     1
 90
       50
176
     1
 90
       50
176
     1
290
     0
176
     1
 90
       50
176
     1
 62
   256
176
     0
 40
1.0
176
     0
 90
        2
176
     1
  1
strokes_ogs.tif
176
     1
290
     0
176
     1
 40
1.0
176
     1
 40
1.0
176
     1
  0
VISUALSTYLE
  5
2B
102
{ACAD_REACTORS
330
29
102
}
330
29
100
AcDbVisualStyle
  2
FlatWithEdges
 70
     1
177
     3
291
     1
 70
    58
 90
        2
176
     1
 90
        1
176
     1
 90
        1
176
     1
 90
        2
176
     1
 40
0.6
176
     1
 40
30.0
176
     1
 62
     7
420
 16777215
176
     1
 90
        1
176
     1
 90
        0
176
     1
 62
     7
176
     1
 62
   257
176
     1
 90
        1
176
     1
 90
        1
176
     1
 40
1.0
176
     1
 90
        0
176
     1
 62
   257
176
     1
 40
1.0
176
     1
 90
        1
176
     1
 90
        6
176
     1
 90
        2
176
     1
 62
     7
176
     1
 90
        5
176
     1
 90
        0
176
     1
 90
        0
176
     1
290
     0
176
     1
 90
       13
176
     1
 40
0.0
176
     1
 90
        0
176
     1
290
     0
176
     1
290
     1
176
     1
290
     1
176
     1
290
     0
176
     1
290
     0
176
     1
290
     0
176
     1
290
     0
176
     1
290
     0
176
     1
290
     0
176
     1
 90
       50
176
     1
 40
0.0
176
     1
 40
1.0
176
     1
 90
        0
176
     1
 62
    18
420
        0
176
     1
 90
       50
176
     1
 90
        3
176
     1
 62
     5
420
      255
176
     1
290
     0
176
     1
 90
       50
176
     1
 90
       50
176
     1
 90
       50
176
     1
290
     0
176
     1
 90
       50
176
     1
 62
   256
176
     0
 40
1.0
176
     0
 90
        2
176
     1
  1
strokes_ogs.tif
176
     1
290
     0
176
     1
 40
1.0
176
     1
 40
1.0
176
     1
  0
VISUALSTYLE
  5
2C
102
{ACAD_REACTORS
330
29
102
}
330
29
100
AcDbVisualStyle
  2
Gouraud
 70
     2
177
     3
291
     1
 70
    58
 90
        2
176
     1
 90
        2
176
     1
 90
        1
176
     1
 90
        2
176
     1
 40
0.6
176
     1
 40
30.0
176
     1
 62
     7
420
 16777215
176
     1
 90
        0
176
     1
 90
        0
176
     1
 62
     7
176
     1
 62
   257
176
     1
 90
        1
176
     1
 90
        1
176
     1
 40
1.0
176
     1
 90
        0
176
     1
 62
     7
176
     1
 40
1.0
176
     1
 90
        1
176
     1
 90
        6
176
     1
 90
        2
176
     1
 62
     7
176
     1
 90
        5
176
     1
 90
        0
176
     1
 90
        0
176
     1
290
     0
176
     1
 90
       13
176
     1
 40
0.0
176
     1
 90
        0
176
     1
290
     0
176
     1
290
     1
176
     1
290
     1
176
     1
290
     0
176
     1
290
     0
176
     1
290
     0
176
     1
290
     0
176
     1
290
     0
176
     1
290
     0
176
     1
 90
       50
176
     1
 40
0.0
176
     1
 40
1.0
176
     1
 90
        0
176
     1
 62
    18
420
        0
176
     1
 90
       50
176
     1
 90
        3
176
     1
 62
     5
420
      255
176
     1
290
     0
176
     1
 90
       50
176
     1
 90
       50
176
     1
 90
       50
176
     1
290
     0
176
     1
 90
       50
176
     1
 62
   256
176
     0
 40
1.0
176
     0
 90
        2
176
     1
  1
strokes_ogs.tif
176
     1
290
     0
176
     1
 40
1.0
176
     1
 40
1.0
176
     1
  0
VISUALSTYLE
  5
2D
102
{ACAD_REACTORS
330
29
102
}
330
29
100
AcDbVisualStyle
  2
GouraudWithEdges
 70
     3
177
     3
291
     1
 70
    58
 90
        2
176
     1
 90
        2
176
     1
 90
        1
176
     1
 90
        2
176
     1
 40
0.6
176
     1
 40
30.0
176
     1
 62
     7
420
 16777215
176
     1
 90
        1
176
     1
 90
        0
176
     1
 62
     7
176
     1
 62
   257
176
     1
 90
        1
176
     1
 90
        1
176
     1
 40
1.0
176
     1
 90
        0
176
     1
 62
   257
176
     1
 40
1.0
176
     1
 90
        1
176
     1
 90
        6
176
     1
 90
        2
176
     1
 62
     7
176
     1
 90
        5
176
     1
 90
        0
176
     1
 90
        0
176
     1
290
     0
176
     1
 90
       13
176
     1
 40
0.0
176
     1
 90
        0
176
     1
290
     0
176
     1
290
     1
176
     1
290
     1
176
     1
290
     0
176
     1
290
     0
176
     1
290
     0
176
     1
290
     0
176
     1
290
     0
176
     1
290
     0
176
     1
 90
       50
176
     1
 40
0.0
176
     1
 40
1.0
176
     1
 90
        0
176
     1
 62
    18
420
        0
176
     1
 90
       50
176
     1
 90
        3
176
     1
 62
     5
420
      255
176
     1
290
     0
176
     1
 90
       50
176
     1
 90
       50
176
     1
 90
       50
176
     1
290
     0
176
     1
 90
       50
176
     1
 62
   256
176
     0
 40
1.0
176
     0
 90
        2
176
     1
  1
strokes_ogs.tif
176
     1
290
     0
176
     1
 40
1.0
176
     1
 40
1.0
176
     1
  0
VISUALSTYLE
  5
31
102
{ACAD_REACTORS
330
29
102
}
330
29
100
AcDbVisualStyle
  2
Hidden
 70
     6
177
     3
291
     0
 70
    58
 90
        1
176
     1
 90
        2
176
     1
 90
        2
176
     1
 90
        0
176
     1
 40
0.6
176
     1
 40
30.0
176
     1
 62
     7
420
 16777215
176
     1
 90
        2
176
     1
 90
        2
176
     1
 62
     7
176
     1
 62
   257
176
     1
 90
        2
176
     1
 90
        1
176
     1
 40
40.0
176
     1
 90
        0
176
     1
 62
   257
176
     1
 40
1.0
176
     1
 90
        1
176
     1
 90
        6
176
     1
 90
        2
176
     1
 62
     7
176
     1
 90
        3
176
     1
 90
        0
176
     1
 90
        0
176
     1
290
     0
176
     1
 90
        1
176
     1
 40
0.0
176
     1
 90
        0
176
     1
290
     0
176
     1
290
     1
176
     1
290
     1
176
     1
290
     0
176
     1
290
     0
176
     1
290
     0
176
     1
290
     0
176
     1
290
     0
176
     1
290
     0
176
     1
 90
       50
176
     1
 40
0.0
176
     1
 40
1.0
176
     1
 90
        0
176
     1
 62
    18
420
        0
176
     1
 90
       50
176
     1
 90
        3
176
     1
 62
     5
420
      255
176
     1
290
     0
176
     1
 90
       50
176
     1
 90
       50
176
     1
 90
       50
176
     1
290
     0
176
     1
 90
       50
176
     1
 62
   256
176
     0
 40
1.0
176
     0
 90
        2
176
     1
  1
strokes_ogs.tif
176
     1
290
     0
176
     1
 40
1.0
176
     1
 40
1.0
176
     1
  0
VISUALSTYLE
  5
3F
102
{ACAD_REACTORS
330
29
102
}
330
29
100
AcDbVisualStyle
  2
JitterOff
 70
    20
177
     3
291
     1
 70
    58
 90
        2
176
     0
 90
        2
176
     0
 90
        0
176
     0
 90
        0
176
     0
 40
0.6
176
     0
 40
30.0
176
     0
 62
     7
420
 16777215
176
     0
 90
        1
176
     0
 90
        4
176
     0
 62
     7
176
     0
 62
   257
176
     0
 90
        1
176
     0
 90
        1
176
     0
 40
1.0
176
     0
 90
       10
176
     2
 62
     7
176
     0
 40
1.0
176
     0
 90
        1
176
     0
 90
        6
176
     0
 90
        2
176
     0
 62
     7
176
     0
 90
        5
176
     0
 90
        0
176
     0
 90
        0
176
     0
290
     0
176
     0
 90
        1
176
     0
 40
0.0
176
     0
 90
        0
176
     0
290
     0
176
     0
290
     1
176
     0
290
     1
176
     0
290
     0
176
     0
290
     0
176
     0
290
     0
176
     0
290
     0
176
     0
290
     0
176
     0
290
     0
176
     0
 90
       50
176
     0
 40
0.0
176
     0
 40
1.0
176
     0
 90
        0
176
     0
 62
    18
420
        0
176
     0
 90
       50
176
     0
 90
        3
176
     0
 62
     5
420
      255
176
     0
290
     0
176
     0
 90
       50
176
     0
 90
       50
176
     0
 90
       50
176
     0
290
     0
176
     0
 90
       50
176
     0
 62
   256
176
     0
 40
1.0
176
     0
 90
        2
176
     0
  1
strokes_ogs.tif
176
     0
290
     0
176
     0
 40
1.0
176
     0
 40
1.0
176
     0
  0
VISUALSTYLE
  5
37
102
{ACAD_REACTORS
330
29
102
}
330
29
100
AcDbVisualStyle
  2
Linepattern
 70
    14
177
     3
291
     1
 70
    58
 90
        2
176
     1
 90
        2
176
     1
 90
        0
176
     1
 90
        0
176
     1
 40
0.6
176
     1
 40
30.0
176
     1
 62
     7
420
 16777215
176
     1
 90
        1
176
     1
 90
        4
176
     1
 62
     7
176
     1
 62
   257
176
     1
 90
        7
176
     1
 90
        7
176
     1
 40
1.0
176
     1
 90
        8
176
     1
 62
     7
176
     1
 40
1.0
176
     1
 90
        1
176
     1
 90
        6
176
     1
 90
        2
176
     1
 62
     7
176
     1
 90
        5
176
     1
 90
        0
176
     1
 90
        0
176
     1
290
     0
176
     1
 90
        1
176
     1
 40
0.0
176
     1
 90
        0
176
     1
290
     0
176
     1
290
     1
176
     1
290
     1
176
     1
290
     0
176
     1
290
     0
176
     1
290
     0
176
     1
290
     0
176
     1
290
     0
176
     1
290
     0
176
     1
 90
       50
176
     1
 40
0.0
176
     1
 40
1.0
176
     1
 90
        0
176
     1
 62
    18
420
        0
176
     1
 90
       50
176
     1
 90
        3
176
     1
 62
     5
420
      255
176
     1
290
     0
176
     1
 90
       50
176
     1
 90
       50
176
     1
 90
       50
176
     1
290
     0
176
     1
 90
       50
176
     1
 62
   256
176
     0
 40
1.0
176
     0
 90
        2
176
     1
  1
strokes_ogs.tif
176
     1
290
     0
176
     1
 40
1.0
176
     1
 40
1.0
176
     1
  0
VISUALSTYLE
  5
40
102
{ACAD_REACTORS
330
29
102
}
330
29
100
AcDbVisualStyle
  2
OverhangOff
 70
    21
177
     3
291
     1
 70
    58
 90
        2
176
     0
 90
        2
176
     0
 90
        0
176
     0
 90
        0
176
     0
 40
0.6
176
     0
 40
30.0
176
     0
 62
     7
420
 16777215
176
     0
 90
        1
176
     0
 90
        4
176
     0
 62
     7
176
     0
 62
   257
176
     0
 90
        1
176
     0
 90
        1
176
     0
 40
1.0
176
     0
 90
        9
176
     2
 62
     7
176
     0
 40
1.0
176
     0
 90
        1
176
     0
 90
        6
176
     0
 90
        2
176
     0
 62
     7
176
     0
 90
        5
176
     0
 90
        0
176
     0
 90
        0
176
     0
290
     0
176
     0
 90
        1
176
     0
 40
0.0
176
     0
 90
        0
176
     0
290
     0
176
     0
290
     1
176
     0
290
     1
176
     0
290
     0
176
     0
290
     0
176
     0
290
     0
176
     0
290
     0
176
     0
290
     0
176
     0
290
     0
176
     0
 90
       50
176
     0
 40
0.0
176
     0
 40
1.0
176
     0
 90
        0
176
     0
 62
    18
420
        0
176
     0
 90
       50
176
     0
 90
        3
176
     0
 62
     5
420
      255
176
     0
290
     0
176
     0
 90
       50
176
     0
 90
       50
176
     0
 90
       50
176
     0
290
     0
176
     0
 90
       50
176
     0
 62
   256
176
     0
 40
1.0
176
     0
 90
        2
176
     0
  1
strokes_ogs.tif
176
     0
290
     0
176
     0
 40
1.0
176
     0
 40
1.0
176
     0
  0
VISUALSTYLE
  5
33
102
{ACAD_REACTORS
330
29
102
}
330
29
100
AcDbVisualStyle
  2
Realistic
 70
     8
177
     3
291
     0
 70
    58
 90
        2
176
     1
 90
        3
176
     1
 90
        0
176
     1
 90
        2
176
     1
 40
0.6
176
     1
 40
30.0
176
     1
 62
     7
420
 16777215
176
     1
 90
        0
176
     1
 90
        0
176
     1
 62
     7
176
     1
 62
   257
176
     1
 90
        1
176
     1
 90
        1
176
     1
 40
1.0
176
     1
 90
        8
176
     1
 62
   257
176
     1
 40
1.0
176
     1
 90
        1
176
     1
 90
        6
176
     1
 90
        2
176
     1
 62
     7
176
     1
 90
        3
176
     1
 90
        0
176
     1
 90
        0
176
     1
290
     0
176
     1
 90
       13
176
     1
 40
0.0
176
     1
 90
        0
176
     1
290
     0
176
     1
290
     1
176
     1
290
     1
176
     1
290
     0
176
     1
290
     0
176
     1
290
     0
176
     1
290
     0
176
     1
290
     0
176
     1
290
     0
176
     1
 90
       50
176
     1
 40
0.0
176
     1
 40
1.0
176
     1
 90
        0
176
     1
 62
    18
420
        0
176
     1
 90
       50
176
     1
 90
        3
176
     1
 62
     5
420
      255
176
     1
290
     0
176
     1
 90
       50
176
     1
 90
       50
176
     1
 90
       50
176
     1
290
     0
176
     1
 90
       50
176
     1
 62
   256
176
     0
 40
1.0
176
     0
 90
        2
176
     1
  1
strokes_ogs.tif
176
     1
290
     0
176
     1
 40
1.0
176
     1
 40
1.0
176
     1
  0
VISUALSTYLE
  5
3E
102
{ACAD_REACTORS
330
29
102
}
330
29
100
AcDbVisualStyle
  2
Shaded
 70
    27
177
     3
291
     0
 70
    58
 90
        2
176
     1
 90
        2
176
     1
 90
        1
176
     1
 90
        2
176
     1
 40
0.6
176
     1
 40
30.0
176
     1
 62
     7
420
 16777215
176
     1
 90
        0
176
     1
 90
        4
176
     1
 62
     7
176
     1
 62
   257
176
     1
 90
        1
176
     1
 90
        1
176
     1
 40
1.0
176
     1
 90
        8
176
     1
 62
   257
176
     1
 40
1.0
176
     1
 90
        1
176
     1
 90
        6
176
     1
 90
        2
176
     1
 62
     8
420
  7895160
176
     1
 90
        3
176
     1
 90
        0
176
     1
 90
        0
176
     1
290
     0
176
     1
 90
        5
176
     1
 40
0.0
176
     1
 90
        0
176
     1
290
     0
176
     1
290
     1
176
     1
290
     1
176
     1
290
     0
176
     1
290
     0
176
     1
290
     0
176
     1
290
     0
176
     1
290
     0
176
     1
290
     0
176
     1
 90
       50
176
     1
 40
0.0
176
     1
 40
1.0
176
     1
 90
        0
176
     1
 62
    18
420
        0
176
     1
 90
       50
176
     1
 90
        3
176
     1
 62
     5
420
      255
176
     1
290
     0
176
     1
 90
       50
176
     1
 90
       50
176
     1
 90
       50
176
     1
290
     0
176
     1
 90
       50
176
     1
 62
   256
176
     0
 40
1.0
176
     0
 90
        2
176
     1
  1
strokes_ogs.tif
176
     1
290
     0
176
     1
 40
1.0
176
     1
 40
1.0
176
     1
  0
VISUALSTYLE
  5
3D
102
{ACAD_REACTORS
330
29
102
}
330
29
100
AcDbVisualStyle
  2
Shaded with edges
 70
    26
177
     3
291
     0
 70
    58
 90
        2
176
     1
 90
        2
176
     1
 90
        1
176
     1
 90
        2
176
     1
 40
0.6
176
     1
 40
30.0
176
     1
 62
     7
420
 16777215
176
     1
 90
        1
176
     1
 90
        2
176
     1
 62
     7
176
     1
 62
   257
176
     1
 90
        2
176
     1
 90
        1
176
     1
 40
1.0
176
     1
 90
        8
176
     1
 62
   257
176
     1
 40
1.0
176
     1
 90
        1
176
     1
 90
        6
176
     1
 90
        2
176
     1
 62
     7
176
     1
 90
        3
176
     1
 90
        0
176
     1
 90
        0
176
     1
290
     0
176
     1
 90
        5
176
     1
 40
0.0
176
     1
 90
        0
176
     1
290
     0
176
     1
290
     1
176
     1
290
     1
176
     1
290
     0
176
     1
290
     0
176
     1
290
     0
176
     1
290
     0
176
     1
290
     0
176
     1
290
     0
176
     1
 90
       50
176
     1
 40
0.0
176
     1
 40
1.0
176
     1
 90
        0
176
     1
 62
    18
420
        0
176
     1
 90
       50
176
     1
 90
        3
176
     1
 62
     5
420
      255
176
     1
290
     0
176
     1
 90
       50
176
     1
 90
       50
176
     1
 90
       50
176
     1
290
     0
176
     1
 90
       50
176
     1
 62
   256
176
     0
 40
1.0
176
     0
 90
        2
176
     1
  1
strokes_ogs.tif
176
     1
290
     0
176
     1
 40
1.0
176
     1
 40
1.0
176
     1
  0
VISUALSTYLE
  5
3A
102
{ACAD_REACTORS
330
29
102
}
330
29
100
AcDbVisualStyle
  2
Shades of Gray
 70
    23
177
     3
291
     0
 70
    58
 90
        2
176
     1
 90
        2
176
     1
 90
        3
176
     1
 90
        0
176
     1
 40
0.6
176
     1
 40
30.0
176
     1
 62
     7
420
 16777215
176
     1
 90
        2
176
     1
 90
        2
176
     1
 62
     7
176
     1
 62
     7
176
     1
 90
        1
176
     1
 90
        1
176
     1
 40
40.0
176
     1
 90
        8
176
     1
 62
     7
176
     1
 40
1.0
176
     1
 90
        1
176
     1
 90
        6
176
     1
 90
        2
176
     1
 62
     7
176
     1
 90
        3
176
     1
 90
        0
176
     1
 90
        0
176
     1
290
     0
176
     1
 90
        1
176
     1
 40
0.0
176
     1
 90
        0
176
     1
290
     0
176
     1
290
     1
176
     1
290
     1
176
     1
290
     0
176
     1
290
     0
176
     1
290
     0
176
     1
290
     0
176
     1
290
     0
176
     1
290
     0
176
     1
 90
       50
176
     1
 40
0.0
176
     1
 40
1.0
176
     1
 90
        0
176
     1
 62
    18
420
        0
176
     1
 90
       50
176
     1
 90
        3
176
     1
 62
     5
420
      255
176
     1
290
     0
176
     1
 90
       50
176
     1
 90
       50
176
     1
 90
       50
176
     1
290
     0
176
     1
 90
       50
176
     1
 62
   256
176
     0
 40
1.0
176
     0
 90
        2
176
     1
  1
strokes_ogs.tif
176
     1
290
     0
176
     1
 40
1.0
176
     1
 40
1.0
176
     1
  0
VISUALSTYLE
  5
3B
102
{ACAD_REACTORS
330
29
102
}
330
29
100
AcDbVisualStyle
  2
Sketchy
 70
    24
177
     3
291
     0
 70
    58
 90
        1
176
     1
 90
        2
176
     1
 90
        2
176
     1
 90
        0
176
     1
 40
0.6
176
     1
 40
30.0
176
     1
 62
     7
420
 16777215
176
     1
 90
        2
176
     1
 90
        2
176
     1
 62
     7
176
     1
 62
     7
176
     1
 90
        1
176
     1
 90
        1
176
     1
 40
40.0
176
     1
 90
       11
176
     1
 62
     7
176
     1
 40
1.0
176
     1
 90
        1
176
     1
 90
        6
176
     1
 90
        2
176
     1
 62
     7
176
     1
 90
        6
176
     1
 90
        0
176
     1
 90
        0
176
     1
290
     0
176
     1
 90
        1
176
     1
 40
0.0
176
     1
 90
        0
176
     1
290
     0
176
     1
290
     1
176
     1
290
     1
176
     1
290
     0
176
     1
290
     0
176
     1
290
     0
176
     1
290
     0
176
     1
290
     0
176
     1
290
     0
176
     1
 90
       50
176
     1
 40
0.0
176
     1
 40
1.0
176
     1
 90
        0
176
     1
 62
    18
420
        0
176
     1
 90
       50
176
     1
 90
        3
176
     1
 62
     5
420
      255
176
     1
290
     0
176
     1
 90
       50
176
     1
 90
       50
176
     1
 90
       50
176
     1
290
     0
176
     1
 90
       50
176
     1
 62
   256
176
     0
 40
1.0
176
     0
 90
        2
176
     1
  1
strokes_ogs.tif
176
     1
290
     0
176
     1
 40
1.0
176
     1
 40
1.0
176
     1
  0
VISUALSTYLE
  5
36
102
{ACAD_REACTORS
330
29
102
}
330
29
100
AcDbVisualStyle
  2
Thicken
 70
    13
177
     3
291
     1
 70
    58
 90
        2
176
     1
 90
        2
176
     1
 90
        0
176
     1
 90
        0
176
     1
 40
0.6
176
     1
 40
30.0
176
     1
 62
     7
420
 16777215
176
     1
 90
        1
176
     1
 90
        4
176
     1
 62
     7
176
     1
 62
   257
176
     1
 90
        1
176
     1
 90
        1
176
     1
 40
1.0
176
     1
 90
       12
176
     1
 62
     7
176
     1
 40
1.0
176
     1
 90
        1
176
     1
 90
        6
176
     1
 90
        2
176
     1
 62
     7
176
     1
 90
        5
176
     1
 90
        0
176
     1
 90
        0
176
     1
290
     0
176
     1
 90
        1
176
     1
 40
0.0
176
     1
 90
        0
176
     1
290
     0
176
     1
290
     1
176
     1
290
     1
176
     1
290
     0
176
     1
290
     0
176
     1
290
     0
176
     1
290
     0
176
     1
290
     0
176
     1
290
     0
176
     1
 90
       50
176
     1
 40
0.0
176
     1
 40
1.0
176
     1
 90
        0
176
     1
 62
    18
420
        0
176
     1
 90
       50
176
     1
 90
        3
176
     1
 62
     5
420
      255
176
     1
290
     0
176
     1
 90
       50
176
     1
 90
       50
176
     1
 90
       50
176
     1
290
     0
176
     1
 90
       50
176
     1
 62
   256
176
     0
 40
1.0
176
     0
 90
        2
176
     1
  1
strokes_ogs.tif
176
     1
290
     0
176
     1
 40
1.0
176
     1
 40
1.0
176
     1
  0
VISUALSTYLE
  5
30
102
{ACAD_REACTORS
330
29
102
}
330
29
100
AcDbVisualStyle
  2
Wireframe
 70
     5
177
     3
291
     0
 70
    58
 90
        0
176
     1
 90
        2
176
     1
 90
        0
176
     1
 90
        0
176
     1
 40
0.6
176
     1
 40
30.0
176
     1
 62
     7
420
 16777215
176
     1
 90
        1
176
     1
 90
        4
176
     1
 62
     7
176
     1
 62
   257
176
     1
 90
        1
176
     1
 90
        1
176
     1
 40
1.0
176
     1
 90
        0
176
     1
 62
   257
176
     1
 40
1.0
176
     1
 90
        1
176
     1
 90
        6
176
     1
 90
        2
176
     1
 62
     7
176
     1
 90
        3
176
     1
 90
        0
176
     1
 90
        0
176
     1
290
     0
176
     1
 90
        1
176
     1
 40
0.0
176
     1
 90
        0
176
     1
290
     0
176
     1
290
     1
176
     1
290
     1
176
     1
290
     0
176
     1
290
     0
176
     1
290
     0
176
     1
290
     0
176
     1
290
     0
176
     1
290
     0
176
     1
 90
       50
176
     1
 40
0.0
176
     1
 40
1.0
176
     1
 90
        0
176
     1
 62
    18
420
        0
176
     1
 90
       50
176
     1
 90
        3
176
     1
 62
     5
420
      255
176
     1
290
     0
176
     1
 90
       50
176
     1
 90
       50
176
     1
 90
       50
176
     1
290
     0
176
     1
 90
       50
176
     1
 62
   256
176
     0
 40
1.0
176
     0
 90
        2
176
     1
  1
strokes_ogs.tif
176
     1
290
     0
176
     1
 40
1.0
176
     1
 40
1.0
176
     1
  0
VISUALSTYLE
  5
3C
102
{ACAD_REACTORS
330
29
102
}
330
29
100
AcDbVisualStyle
  2
X-Ray
 70
    25
177
     3
291
     0
 70
    58
 90
        2
176
     1
 90
        2
176
     1
 90
        1
176
     1
 90
        1
176
     1
 40
0.5
176
     1
 40
30.0
176
     1
 62
     7
420
 16777215
176
     1
 90
        1
176
     1
 90
        0
176
     1
 62
     7
176
     1
 62
   257
176
     1
 90
        1
176
     1
 90
        1
176
     1
 40
1.0
176
     1
 90
        8
176
     1
 62
     7
176
     1
 40
1.0
176
     1
 90
        1
176
     1
 90
        6
176
     1
 90
        2
176
     1
 62
     7
176
     1
 90
        3
176
     1
 90
        0
176
     1
 90
        0
176
     1
290
     0
176
     1
 90
       13
176
     1
 40
0.0
176
     1
 90
        0
176
     1
290
     0
176
     1
290
     1
176
     1
290
     1
176
     1
290
     0
176
     1
290
     0
176
     1
290
     0
176
     1
290
     0
176
     1
290
     0
176
     1
290
     0
176
     1
 90
       50
176
     1
 40
0.0
176
     1
 40
1.0
176
     1
 90
        0
176
     1
 62
    18
420
        0
176
     1
 90
       50
176
     1
 90
        3
176
     1
 62
     5
420
      255
176
     1
290
     0
176
     1
 90
       50
176
     1
 90
       50
176
     1
 90
       50
176
     1
290
     0
176
     1
 90
       50
176
     1
 62
   256
176
     0
 40
1.0
176
     0
 90
        2
176
     1
  1
strokes_ogs.tif
176
     1
290
     0
176
     1
 40
1.0
176
     1
 40
1.0
176
     1
  0
DICTIONARYVAR
  5
9C
102
{ACAD_REACTORS
330
97
102
}
330
97
100
DictionaryVariables
280
     0
  1
1:1
  0
DICTIONARYVAR
  5
99
102
{ACAD_REACTORS
330
97
102
}
330
97
100
DictionaryVariables
280
     0
  1
STANDARD
  0
DICTIONARYVAR
  5
98
102
{ACAD_REACTORS
330
97
102
}
330
97
100
DictionaryVariables
280
     0
  1
STANDARD
  0
DICTIONARYVAR
  5
9A
102
{ACAD_REACTORS
330
97
102
}
330
97
100
DictionaryVariables
280
     0
  1
Imperial24
  0
DICTIONARYVAR
  5
9B
102
{ACAD_REACTORS
330
97
102
}
330
97
100
DictionaryVariables
280
     0
  1
Imperial24
  0
DICTIONARY
  5
1A
330
19
100
AcDbDictionary
280
     1
281
     1
  3
BUMPTILE
360
1C
  3
DIFFUSETILE
360
1B
  3
OPACITYTILE
360
1F
  3
REFLECTIONTILE
360
1E
  3
REFRACTIONTILE
360
20
  3
SPECULARTILE
360
1D
  0
DICTIONARY
  5
12
330
11
100
AcDbDictionary
280
     1
281
     1
  3
BUMPTILE
360
14
  3
DIFFUSETILE
360
13
  3
OPACITYTILE
360
17
  3
REFLECTIONTILE
360
16
  3
REFRACTIONTILE
360
18
  3
SPECULARTILE
360
15
  0
DICTIONARY
  5
22
330
21
100
AcDbDictionary
280
     1
281
     1
  3
BUMPTILE
360
24
  3
DIFFUSETILE
360
23
  3
OPACITYTILE
360
27
  3
REFLECTIONTILE
360
26
  3
REFRACTIONTILE
360
28
  3
SPECULARTILE
360
25
  0
DICTIONARY
  5
9D
330
65
100
AcDbDictionary
280
     1
281
     1
  3
ACAD_ROUNDTRIP_2008_TABLESTYLE_CELLSTYLEMAP
360
9E
  0
XRECORD
  5
1C
102
{ACAD_REACTORS
330
1A
102
}
330
1A
100
AcDbXrecord
280
     1
270
     1
271
     1
  0
XRECORD
  5
1B
102
{ACAD_REACTORS
330
1A
102
}
330
1A
100
AcDbXrecord
280
     1
270
     1
271
     1
  0
XRECORD
  5
1F
102
{ACAD_REACTORS
330
1A
102
}
330
1A
100
AcDbXrecord
280
     1
270
     1
271
     1
  0
XRECORD
  5
1E
102
{ACAD_REACTORS
330
1A
102
}
330
1A
100
AcDbXrecord
280
     1
270
     1
271
     1
  0
XRECORD
  5
20
102
{ACAD_REACTORS
330
1A
102
}
330
1A
100
AcDbXrecord
280
     1
270
     1
271
     1
  0
XRECORD
  5
1D
102
{ACAD_REACTORS
330
1A
102
}
330
1A
100
AcDbXrecord
280
     1
270
     1
271
     1
  0
XRECORD
  5
14
102
{ACAD_REACTORS
330
12
102
}
330
12
100
AcDbXrecord
280
     1
270
     1
271
     1
  0
XRECORD
  5
13
102
{ACAD_REACTORS
330
12
102
}
330
12
100
AcDbXrecord
280
     1
270
     1
271
     1
  0
XRECORD
  5
17
102
{ACAD_REACTORS
330
12
102
}
330
12
100
AcDbXrecord
280
     1
270
     1
271
     1
  0
XRECORD
  5
16
102
{ACAD_REACTORS
330
12
102
}
330
12
100
AcDbXrecord
280
     1
270
     1
271
     1
  0
XRECORD
  5
18
102
{ACAD_REACTORS
330
12
102
}
330
12
100
AcDbXrecord
280
     1
270
     1
271
     1
  0
XRECORD
  5
15
102
{ACAD_REACTORS
330
12
102
}
330
12
100
AcDbXrecord
280
     1
270
     1
271
     1
  0
XRECORD
  5
24
102
{ACAD_REACTORS
330
22
102
}
330
22
100
AcDbXrecord
280
     1
270
     1
271
     1
  0
XRECORD
  5
23
102
{ACAD_REACTORS
330
22
102
}
330
22
100
AcDbXrecord
280
     1
270
     1
271
     1
  0
XRECORD
  5
27
102
{ACAD_REACTORS
330
22
102
}
330
22
100
AcDbXrecord
280
     1
270
     1
271
     1
  0
XRECORD
  5
26
102
{ACAD_REACTORS
330
22
102
}
330
22
100
AcDbXrecord
280
     1
270
     1
271
     1
  0
XRECORD
  5
28
102
{ACAD_REACTORS
330
22
102
}
330
22
100
AcDbXrecord
280
     1
270
     1
271
     1
  0
XRECORD
  5
25
102
{ACAD_REACTORS
330
22
102
}
330
22
100
AcDbXrecord
280
     1
270
     1
271
     1
  0
CELLSTYLEMAP
  5
9E
102
{ACAD_REACTORS
330
9D
102
}
330
9D
100
AcDbCellStyleMap
 90
        3
300
CELLSTYLE
  1
TABLEFORMAT_BEGIN
 90
        5
170
     1
 91
        0
 92
    32768
 62
   257
 93
        1
300
CONTENTFORMAT
  1
CONTENTFORMAT_BEGIN
 90
        0
 91
        0
 92
      512
 93
        0
300

 40
0.0
140
1.0
 94
        5
 62
     0
340
55
144
0.25
309
CONTENTFORMAT_END
171
     0
 94
        0
309
TABLEFORMAT_END
  1
CELLSTYLE_BEGIN
 90
        1
 91
        1
300
_TITLE
309
CELLSTYLE_END
300
CELLSTYLE
  1
TABLEFORMAT_BEGIN
 90
        5
170
     1
 91
        0
 92
        0
 62
   257
 93
        1
300
CONTENTFORMAT
  1
CONTENTFORMAT_BEGIN
 90
        0
 91
        0
 92
      512
 93
        0
300

 40
0.0
140
1.0
 94
        5
 62
     0
340
55
144
0.18
309
CONTENTFORMAT_END
171
     0
 94
        0
309
TABLEFORMAT_END
  1
CELLSTYLE_BEGIN
 90
        2
 91
        1
300
_HEADER
309
CELLSTYLE_END
300
CELLSTYLE
  1
TABLEFORMAT_BEGIN
 90
        5
170
     1
 91
        0
 92
        0
 62
   257
 93
        1
300
CONTENTFORMAT
  1
CONTENTFORMAT_BEGIN
 90
        0
 91
        0
 92
      512
 93
        0
300

 40
0.0
140
1.0
 94
        2
 62
     0
340
55
144
0.18
309
CONTENTFORMAT_END
171
     0
 94
        0
309
TABLEFORMAT_END
  1
CELLSTYLE_BEGIN
 90
        3
 91
        2
300
_DATA
309
CELLSTYLE_END
  0
ENDSEC
  0
EOF
